Cifra Club

Aprenda

Clones

La Vela Puerca

Cifra: Principal (violão e guitarra)
tom: Bm
Intro:

E|-----------------------------------------|
B|-------3---2---------------------3---2---|
G|-----4---2---------------------4---2-----|
D|---------------2h4p2---------------------|
A|--2-------------------5p2---2------------|
E|-----------------------------------------|




Un mundo ciego (o no lo queres ver..)

Profeta enfermo

¿o sos cómplice de el?

Castillo al suelo

La realidad otra vez, se te va...

          Bm
Matan renglones, los clones
   A
se hacen rey
           Bm                 A
y en los cajones, se esconden y no ven..
             Bm
Que no hay razones
             A
Que me maten, de una vez
        Bm          A
Y ahí están...

.(aca entra una 3er gtarra haciendo rasgueos rápidos y cortos
cn A  y Bm  en los  trastes 5 y 7 correspondientemente,
2 en cda nota, y además la gtarra q venia haciendo lo de la intro cambia
y hace esto:

RIFF 2
E|---------------| --------------
B|---------------| --------------
G|---------------| --------------
D|-----4-5-------| ----4-5-------
A|--2-------2-0--| -2-------2-0--
E|---------------| --------------


            Bm          A
Sus oraciones, de confusión letal
         Bm                A
los pormenores, de su ambición actual
          Bm
llenan rincones
             A                     Bm
con las versiones, de un triste disfraz
     A
de moral...

G                  A
Cuando ese ego, también es droga
G                  A
Es tinta de la peor!
G                   A
la hipocresía, se vuelve moda
Em                  F#          Bm        A
la del fiel consumidor, que drogás

E|-------------------------------------------------|
B|-------3---2---------------------3---2-----------|
G|-----4---2---------------------4---2-------------|
D|---------------2h4p2---------------------4-2-----|
A|--2-------------------5p2---2----------------5-2-|
E|-------------------------------------------------|



.(aca sigue cn la intro y rasgeo normal)
             Bm             A
Construyen miedos (o vos se los pagas...)
           Bm               A
soltá el veneno,(¿o vos no queres dar?)
            Bm
pateala en serio
        A                   Bm         A
tu realidad te dejo, sin pensar....

.(entra la 3er gtarra y la intro vuelve al RIFF 2)

       Bm
Son oradores
             A
de males que hacen ley...
         Bm                   A
Muchos borrones, los parches, no se ven
         Bm
y ya son roles
         A             Bm
difíciles de creer y poder
      A
respetar.

G                  A
Cuando ese ego, también es droga
G                  A
Es tinta de la peor!
G             A
la hipocresía, se vuelve moda
                                ^^(aca entra el RIFF 3)
Em                  F#          Bm        A
la del fiel consumidor, que drogás






RIFF 3 (muchas veces)
E|--------------------|
B|--3-2-0----3-2-0----|
G|--------2--------2--|
D|--------------------|
A|--------------------|
E|--------------------|

Solo:
E|---------------------------------------------------------|
B|---------------------------------------------------------|
G|---------------------------------------------------------|
D|--------------------------------------------4------------|
A|--4-h5-5--0---------0-5---4-5-2---4--5--4-5----4-h5-5--0-|
E|--------------3--2---------------------------------------|

                      ^^^^(aca entra la trompeta)
/----------------------^^---------------------------------
/----------------------^^---------------------------------
/----------------------^^--------------6-7----------------
/-------------------------------4--7-------7-7---4-4-5--4-
/--------0-5---4-5-2---4--5---5---------------------------
/--3--2---------------------------------------------------

/---------------------------------------------------------
/-----------------------7--10-----------------------------
/----7---6-7-4--6-7---7---------6-7--------------------7--
/--7--------------------------------7-7---4-4-5--4---7----
/---------------------------------------------------------
/---------------------------------------------------------

/--------------
/--------------
/--6-7-4--6-7--
/--------------
/--------------
/--------------

G                  A
Cuando ese ego, también es droga
G                  A
Es tinta de la peor!
G             A
la hipocresía, se vuelve moda
Em                  F#          Bm        A
la del fiel consumidor, que drogás

G                  A
Cuando ese ego, también es droga
G                  A
Es tinta de la peor!
G             A
la hipocresía, se vuelve moda
Em                  F#          Bm        A
la del fiel consumidor, que drogas

que drogas, consumidor que drogás

E|----------------------------|
B|-------3---2---------3---2--|
G|-----4---2---------4---2----|
D|----------------------------|
A|--2-------------2-----------|
E|----------------------------|

que drogas, consumidor que drogás.


Em     F#                                       Bm
       Consumidor que drogás.

Saludos
Mza.
si les pinta agregenme
Composição de Cebreiro
7 exibições
    • ½ Tom
    • Am
    • Bbm
    • Bm
    • Cm
    • C#m
    • Dm
    • Ebm
    • Em
    • Fm
    • F#m
    • Gm
    • G#m
  • Adicionar à lista

    0 comentários

    Ver todos os comentários
    00:00 / 00:00
    Outros vídeos desta música
    Repetir Qualidade Automático
    Outros vídeos desta música
    00:00 / 00:00
    Automático

    Cifra Club Pro

    Aproveite o Cifra Club com benefícios exclusivos e sem anúncios
    Cifra Club Pro
    Aproveite o Cifra Club com benefícios exclusivos e sem anúncios
    OK