Cifra Club

Aprenda

Ves?

La Vela Puerca

Cifra: Principal (violão e guitarra)
tom: F
F            Gm          Dm
Ves, que perdido que  estoy
        C
Sí no estas conmigo
F         Gm          Dm
después, como voy a llorar
      C
Viviendo el olvido

F           Gm       Dm
No se, pero algo cambio
C
Cuando tuve frío
F            Gm            Dm
Tal vez, fue una gota de amor
 C
Que puso el destino

Coro
D#           Bb      C#
Y llore.. Luego reí..... luego soñe
 F                 C
Con estar despierto
D#                 Bb             C#
Y ves..... Que ahora hay más.... Mucho más
F             C
Que mís deseos


F         Gm              Dm
No,  Quiero andar por ahí
C
Detrás del señuelo
F        Gm              Dm
Ni ver, que lo poco que fui
C
Término en el suelo

F             Gm        Dm
Sabes,  que es difícil amar
C
Sí uno está mordido
F           Gm          Dm
Y yo se,  que te quiero mirar
C
Perdiendo el sentido

Coro
D#               Bb               C#
Y llore.. Luego reí.....Luego  soñe
 F                 C
Con estar despierto
D#                        Bb           C#
Y ves..... Que ahora hay más.... Mucho más
F            C
Que mís deseos

solo:
E|---------------------------------------------------|
B|--1---1--------------------------------------------|
G|----0---3--2--0----3--2--0-------------------------|
D|----------------------------3----3--3/5--3--2------|
A|-----------------------------------------------3---|
E|---------------------------------------------------|
E|---------------------------------------------------|
B|--1---1--------------------------------------------|
G|----0---3--2--3---3/5--2--0--2------3--2--0--------|
D|---------------------------------3-----------3-----|
A|---------------------------------------------------|
E|---------------------------------------------------|
trompetas:
E|--------5--8--6--5------6--5-----------------------|
B|--6--8--------------8---------8--6---6--8--6--5----|
G|-------------------------------------------------5-|
D|---------------------------------------------------|
A|---------------------------------------------------|
E|---------------------------------------------------|
E|--------5--8--6--5--6--8---5----5------------------|
B|--6--8-----------------------8-----6--8--6--5------|
G|-------------------------------------------------5-|
D|---------------------------------------------------|
A|---------------------------------------------------|
E|---------------------------------------------------|
D#               Bb               C#
Y llore.. Luego reí.....Luego  soñe
 F                 C
Con estar despierto
D#                        Bb           C#
Y ves..... Que ahora hay más.... Mucho más
F            C
Que mís deseos
D#
Composição de Sebastian Teysera
11 exibições
    • ½ Tom
    • A
    • Bb
    • B
    • C
    • Db
    • D
    • Eb
    • E
    • F
    • F#
    • G
    • Ab
  • Adicionar à lista

    0 comentários

    Ver todos os comentários
    00:00 / 00:00
    Outros vídeos desta música
    Repetir Qualidade Automático
    Outros vídeos desta música
    00:00 / 00:00
    Automático

    Cifra Club Pro

    Aproveite o Cifra Club com benefícios exclusivos e sem anúncios
    Cifra Club Pro
    Aproveite o Cifra Club com benefícios exclusivos e sem anúncios
    OK