Cifra Club

Schakal

Lacrimosa

Cifra: Principal (violão e guitarra)
tom: F
^ - hammer on, pull off                    
 b - bend string up                         
 r - release bend          
 / - slide up              
  - slide down                             
 ~ - vibrato          
 T - tap             
 x - struck string                          
 . - play the note and then mute it     
 < - raising volume    
PM - palm mute                             
AH - Artificial Harmonic     
 
 
INTRO: 
 
e|--------------------------------------------------| 
B|--------------------------------------------------|FIG1 
G|--------------------------------------------------| 
D|--2------2----------------------------------------| 
A|--0------0------3------3------2-3-3-2-3-3-2-3-3---|X2 
E|----------------1------1------0-1-1-0-1-1-0-1-1---| 
                                PM............... 
 
 
 
VERSE1: 
-FIG1 X2 
  
 
 
 
Chorus: 
Guitar1:   
|-----------------------------------------------------------------| 
|-----------------------------------------------------------------|FIG2 
|---------5------------------------------2------------------------| 
|---------5---------------2--------------2---------------3--------| 
|---------3---------------2--------------0---------------3--------|X1 
|-------------------------0------------------------------1--------| 
 
Guitar2:  
|--12--------------12----12---------------12----| 
|----10-12-13-10------10----10-12-13-10-----10--| 
|-----------------------------------------------| 
|-----------------------------------------------|-------| 
|-----------------------------------------------|     | 
|-----------------------------------------------|     | 
     | 
|--19--------------19----19---------------19----|     | 
|----17-19-20-17------17----17-19-20-17-----17--|     | 
|-----------------------------------------------|     | 
|-----------------------------------------------|-------| 
|-----------------------------------------------|     | 
|-----------------------------------------------|     |SOLO1 
     | 
|--12--------------12----12---------------12----|     |X1 
|----10-12-13-10------10----10-12-13-10-----10--|     | 
|-----------------------------------------------|     | 
|-----------------------------------------------|-------| 
|-----------------------------------------------|     | 
|-----------------------------------------------|     | 
     | 
|--13--------------13----13---------------13----|     | 
|----10-12-13-10------10----10-12-13-10-----10--|     | 
|-----------------------------------------------|     | 
|-----------------------------------------------|-------| 
|-----------------------------------------------|      
|-----------------------------------------------|      
 
Faster: 
Guitar2: SOLO1 
Guitar1:  
|-----------------------------------------------------------------------| 
|-----------------------------------------------------------------------| 
|-----------------------------------------------------------------------| 
|-5----5----5----5----5----5----5---------------------------------------|--| 
|-3-33-3-33-3-33-3-33-3-33-3-33-3-33-2----2----2----2----2----2----2----| 
 | 
|------------------------------------0-00-0-00-0-00-0-00-0-00-0-00-0-00-| 
 |FIG3 
    PM   ..   ..   ..   ..   ..   ..   ..   ..   ..   ..   ..   
..   ..    | 
|-----------------------------------------------------------------------| 
 |X1 
|-----------------------------------------------------------------------| 
 | 
|-----------------------------------------------------------------------|--| 
|-2----2----2----2----2----2----2---------------------------------------| 
|-0-00-0-00-0-00-0-00-0-00-0-00-0-00-3----3----3----3----3----3----3----| 
|------------------------------------1-11-1-11-1-11-1-11-1-11-1-11-1-11-| 
    ..   ..   ..   ..   ..   ..   ..   ..   ..   ..   ..   ..   
..   ..   
 
 
 
 
VERSE2: FIG1 X2 
 
 
 
 
Chorus:  
-FIG2 X1  and  SOLO1 X1 
-FIG3 X1  and  SOLO1 X1 
 
 
 
INTERLUDE: 
|-----------------------------------------------------------------------------| 
|-----------------------------------------------------------------------------| 
|-----------------------------------------------------------------------------| 
|--2-------2--------------------------------------------2---------------------| 
|--0-------0-------3--------3--------2-3-3-2-3-3-2-3-3--0---------------------| 
|------------------1--------1--------0-1-1-0-1-1-0-1-1-------10/-10/-10/-10/--| 
                                     PM............... 
|-----------------------------------------------------| 
|-----------------------------------------------------| 
|-----------------------------------------------------| 
|-----------------------------------4-----------------| 
|---------------(32)----------------4-----------------| 
|--00000000000000000000000000000000-2-----------------| 
   PM.............................. 
 
 
 
-Only keyboards 
-Then: 
|-------------------------------------|  
|-------------------------------------|  
|-------------------------------------|  
|---------------------7-7.-----7-7.---|  
|--4-4.------4-4.-----5-5.-----5-5.---|  
|--2-2.------2-2.---------------------|  
   PM        .        .        .         
 
|---------------------------------------------| 
|---------------------------------------------| 
|--------AH---------AH----------AH--------AH--| 
|--------4~---------4~----7-7---7~--7-7---7~--| 
|--4-4-x------4-4-x-------5-5-x-----5-5-x-----| 
|--2-2-x------2-2-x-----------x---------x-----| 
   .          .           .         . 
 
=============================================================================== 
On the studio version, there's a guitar playing this: 
|--------------------------------------------| 
|--------------------------------------------| 
|--------------------------------------------| 
|--------------------------------------------| 
|-----4--2^4^2^0------------4--2^4^2^0-------| 
|--2-------------4-2-----2-------------4-2---|   
   PM            .       .             .        
|--------------------------------------------| 
|--------------------------------------------| 
|--------------------------------------------| 
|-----7--5^7^5/3-----------7--5^7^5/3--------| 
|--5-------------7-5----5-------------7-5----| 
|--------------------------------------------| 
   .             .      .             .  
=============================================================================== 
 
 
Here Naomi speaks something and then... 
 
 
|-----------------------------------------------------------------------------| 
|-----------------------------------------------------------------------------| 
|-----------------------------------------------------------------------------| 
|-
Composição de Tilo Wolff
Colaboração e revisão:
  • Hellektra
4.127 exibições
    • ½ Tom
    • A
    • Bb
    • B
    • C
    • Db
    • D
    • Eb
    • E
    • F
    • F#
    • G
    • Ab
  • Adicionar à lista

    0 comentários

    Ver todos os comentários

    Conseguiu tocar?

    1 Tocaram 0 Ainda não

    Grave um vídeo tocando Schakal e nos envie!

    00:00 / 00:00
    Outros vídeos desta música
    Repetir Qualidade Automático
    Outros vídeos desta música
    00:00 / 00:00
    Automático

    Cifra Club Pro

    Aproveite o Cifra Club com benefícios exclusivos e sem anúncios
    Cifra Club Pro
    Aproveite o Cifra Club com benefícios exclusivos e sem anúncios
    OK