Cifra Club

Aura (Burqa)

Lady Gaga

Cifra: Principal
exibições 4.945
Tom: C
Intro: E F G F

-----------------------------------|---------------------------------------|
--6--5--4--------------------------|---------------------------------------|
-----------x-x-7-7-6--5--x-x-------|---------------------------------------|
-----------------------------------|--9-9-8--7--x-x-5-5-4--3--x-x----------|
-----------------------------------|---------------------------------------|
-----------------------------------|---------------------------------------| 
(x2)

-----------------------------------|---------------------------------------|
-----------------------------------|------------------------4-4-6--7--6----|
-----------------------------------|-----------5-5-6--8--x-x---------------|  
--3-3-4--7--x-x-7-7-8--10--x-x-----|---------------------------------------|
-----------------------------------|---------------------------------------|
-----------------------------------|---------------------------------------|

-----------------------------------|---------------------------------------|
--------------6--7--6-----6--7--6--|----------------6--7--6-----6--7--6----|
-----------------------------------|---------------------------------------|
-----------------------------------|---------------------------------------|
-----------------------------------|---------------------------------------|
-----------------------------------|---------------------------------------|
(subject to change of time)(rhythm is essential)


E        F
I killed my former and
G               F        G   F         E F G F
Left her in the trunk on highway ten
E                  F
Put the knife under the hood
         G           F              E
If you find it, send it straight to Hollywood

E                     F                    G     F
I'm not a wandering slave, I am a woman of choice
E                       F                    G     F
My veil is protection for the gorgeousness of my face
E                       F                 G       F
You want to pity me cause we raise women to love?
E                       F                 G       F
But in the bedroom, the size of him is more than enough

Em
Do you want to see me naked, lover?
A
Do you want a peek underneath the cover?
C                                        D
Do you want to see the girl who lives behind the aura, behind the aura?
Em
Do you want to touch me, cosmic lover?
A
Do you want a peek underneath the cover?
C                                      D
Do you want to see the girl who lives behind the aura, behind the aura?
D
Behind the aura
D
Behind the aura

E                                                 G G
Enigma popstar is fun, she wear burqa for fashion
E                                                      G G
It's not a statement as much as just a move of passion
E                                                        G G
I may not walk on ya street, or shoot a gun on your soil
E                                                        G G
I hear you screaming "is it because of pleasure's toil?"

E
Dance
E
Sex
E
Art
E
Pop

Em
Do you want to see me naked, lover?
A
Do you want a peek underneath the cover?
C                                       D
Do you want to see the girl who lives behind the aura, behind the aura?
Em
Do you want to touch me, cosmic lover?
A
Do you want a peek underneath the cover?
C                                       D
Do you want to see the girl who lives behind the aura, behind the aura?
D
Behind the curtain?
D
Behind the burqa?

(E G G)

E  E
ARTPOP
Acordes para:
    Colaboração e revisão:
    • Larissa Borges
    • Edwin Paula

    0 comentários

      mostrar mais comentários

      Conseguiu tocar?

      0tocaram0ainda não

      Grave um vídeo tocando Aura (Burqa) e mande pra gente!

      00:00 / 00:00
      outros vídeos desta música
      repetirqualidadeautomática
      Outro vídeos desta música
        00:00 / 00:00
        automática
        OK