Cifra Club

The Cure

Lady Gaga

Cifra: Principal
exibições 5.040
Tom: G# (com acordes na forma de G) Capotraste na 1ª casa
 

   Bm  G/B G   Em       D  Dsus4 C  Cadd9
E|----3---3---7----3---2---3----0---3---|
B|3---3---3---8----3---3---3----1---3---|
G|4---0---0---7-or-0---2---2----0---0---|
D|4---0---0---9----2---0---0----2---2---|
A|2---2---2---7----2------------3---3---|
E|--------3--------0--------------------|


Intro:
Bm  G/B
C   D

Main Keyboard riff

   Bm    G/B       C     D         Bm    G/B       C     D
E|----------------------------------------------------------------|


 B|3-------------------------------3-------------------------7----| Omit D diad at 7th fret
G|4-----4---4---------------------4-----4---4---------------7-----| during the Intro
D|4-----5---5-----2-----4---4-----4-----5---5-----2-----4---------|
A|2-----2---2-----3-----5---5-----2-----2---2-----3-----5---------|
E|----------------------------------------------------------------|


 Vocal hook

   Bm        G/B             C           D
E|--5-7h8p7------5-7h8p7------5-7h8p7-----|
B|8---------8--8---------8--8---------8-8\|
G|----------------------------------------| X2
D|----------------------------------------| 
A|----------------------------------------| Play an octave (12 frets)
E|----------------------------------------| higher to match recording


Verse 1:
Bm                 G/B
I'll undress you, 'cause you're tired
C         D
Cover you as you desire
Bm             G/B             C   D
When you fall asleep inside my arms
Bm               G/B
May not have the fancy things
C                 D
But I'll give you everything
Bm             G                C   D
You could ever want, it's in my arms

Pre-Chorus:

   D                               G
e|15\-----------------------------15\------------------------------| 2nd guitar plays higher notes
B|-----------------------------------------------------------------|
G|-----------------------------------------------------------------|
D|5-x-x-5-x-x-5-x-x-5-x-x-5p4-----5-x-x-5-x-x-5-x-x-5-x-x-5/9------| X3
A|----------------------------5------------------------------------|
E|-----------------------------------------------------------------|


D
So baby tell me yes
Em7
And I will give you everything
C
So baby tell me yes
                  Em7
And I will be all yours tonight
D
So baby tell me yes
Em7                           C
And I will give you everything
N.C.
I will be right by your side

Chorus:
Em7        Cadd9
If I can't find the cure,
Dsus4    G
I'll fix you with my love
Em7       Cadd9
No matter what you know, I'll
Dsus4    G
I'll fix you with my love
Em7        Cadd9
And if you say you're okay
Dsus4          G
I'm gonna heal you anyway
Em7     Cadd9
Promise I'll always be there
Dsus4   G
Promise I'll be the cure (be the cure)

( Em7 Cadd9 )
( Dsus4 G )
( Em7 Cadd9 )
( Dsus4 G )

Verse 2:
Bm             G/B
Rub your feet, your hands, your legs
C           D
Let me take care of it, babe
Bm             G/B                       C   D
Close your eyes, I'll sing your favorite song
Bm              G/B
I wrote you this lullaby
C              D
Hush now baby, don't you cry
Bm           G/B               C    D
Anything you want could not be wrong

Pre-Chorus:
D
So baby tell me yes
Em7
And I will give you everything
C
So baby tell me yes
                  Em7
And I will be all yours tonight
D
So baby tell me yes
Em7                           C
And I will give you everything
N.C.
I will be right by your side

Chorus:
Em7        Cadd9
If I can't find the cure,
Dsus4    G
I'll fix you with my love
Em7       Cadd9
No matter what you know, I'll
Dsus4    G
I'll fix you with my love
Em7        Cadd9
And if you say you're okay
Dsus4          G
I'm gonna heal you anyway
Em7     Cadd9
Promise I'll always be there
Dsus4   G
Promise I'll be the cure (be the cure)

( Em7 Cadd9 )
( Dsus4 G )
( Em7 Cadd9 )
( Dsus4 G )

Bridge:
G/B  G       D       G
I'll fix you with my love
 G/B  G       D       G
(I'll fix you with my love-lo-love)
G/B  G       D       G
I'll fix you with my love
 G/B  G       D       G
(I'll fix you with my love-lo-love)

Chorus:
Em7        Cadd9
If I can't find the cure,
Dsus4    G
I'll fix you with my love
Em7       Cadd9
No matter what you know, I'll
Dsus4    G
I'll fix you with my love
Em7        Cadd9
And if you say you're okay
Dsus4          G
I'm gonna heal you anyway
Em7     Cadd9
Promise I'll always be there
Dsus4   G           Em7  Cadd9
Promise I'll be the cure (be the cure)
Dsus4 G      Em7   Cadd9
      Be the cure
Dsus4 G                   Em7  Cadd9
      Promise I'll be the cure
Dsus4 G      Em7  Cadd9
      Be the cure
N.C.
I'll fix you with my love
Acordes para:
    Composição: Lady GagaColaboração e revisão:
    • Johnny Walls

    0 comentários

      mostrar mais comentários

      Conseguiu tocar?

      1tocaram1ainda não

      Grave um vídeo tocando The Cure e mande pra gente!

      00:00 / 00:00
      outros vídeos desta música
      repetirqualidadeautomática
      Outro vídeos desta música
        00:00 / 00:00
        automática
        OK