Cifra Club

Aprenda

Destroy Everything You Touch

Ladytron

Cifra: Principal (violão e guitarra)
Tom: G
Tabbed by: suzy_flash
Email:*

bass 

intro

   PALMMUTED
A|----------------5---------------------------|
E|--0-0-0-0-0-0-0-----------------------------|


rest of song

E|--------------------------------------------|
B|--------------------------------------------|
G|--------------------------------------------|
D|--------------------------------7-----------|
A|--------------/-5-5-5-5-5-5-5-5-------------|
E|--0-0-0-0-0-0-0-----------------------------|

E|--------------------------------------------|
B|--------------------------------------------|
G|--------------------------------------------|
D|----------------7---------------------------|
A|--5-5-5-5-5-5-5---3-3-3-3-3-3-3-3-----------|
E|--------------------------------------------|

git1 (goes on and on)

E|-------------------------------------|
B|--5---5---5---5---7---7---7---7------|
G|----4---4---4---4---4---4---4---4----|
D|-------------------------------------|
A|-------------------------------------|
E|-------------------------------------|

E|-------------------------------------|
B|--7---7---7---7---8---8---8---8------|
G|----4---4---4---4---5---5---5---5----|
D|-------------------------------------|
A|-------------------------------------|
E|-------------------------------------|

synthchords

Em D D C


extra rif

E|----------------------------------------|
B|----------------------------------------|
G|-------------12-------------------------|
D|--7-9---7-9-----9-7--7-9--9--and repeat-|
A|----------------------------------------|
E|----------------------------------------|

 song keeps evolving around Em D and C ...


hope this keeps you of any
addiction to synths (jintje es gintje)

http://*
Composição de Ladytron
1.039 exibições
    • ½ Tom
    • A
    • Bb
    • B
    • C
    • Db
    • D
    • Eb
    • E
    • F
    • F#
    • G
    • Ab
  • Adicionar à lista

    0 comentários

    Mostrar mais comentários

    Conseguiu tocar?

    0 Tocaram 0 Ainda não

    Grave um vídeo tocando Destroy Everything You Touch e mande pra gente!

    00:00 / 00:00
    outros vídeos desta música
    repetir qualidade Automático
    Outros vídeos desta música
    00:00 / 00:00
    Automático
    OK