Cifra Club

Aprenda

A Gente Nunca Conversou

Lagum

Cifra: Principal (violão e guitarra)
tom: E
[Intro]

  E7M          
E|-4-4-x--4-4-x-4-x-4-4-x--4-4-x-4-x---|
B|-4-4-x--4-4-x-4-x-4-4-x--4-4-x-4-x---|
G|-4-4-x--4-4-x-4-x-4-4-x--4-4-x-4-x---|
D|-2---x-2----x-2-x-2---x-2----x-2-x---|
A|-------------------------------------|
E|-------------------------------------|

   G#m7                            Gm7
E|-------------------------------------|
B|-4-4-x--4-4-x-4-x-4-4-x--4-4-x-4-3---|
G|-4-4-x--4-4-x-4-x-4-4-x--4-4-x-4-3---|
D|-4-4-x--4-4-x-4-x-4-4-x--4-4-x-4-3---|
A|-------------------------------------|
E|-4---x-4----x-4-x-4---x-4----x-4-3---|

   F#m7                      
E|-------------------------------------|
B|-2-2-x--2-2-x-2-x-2-2-x--2-2-x-2-x---|
G|-2-2-x--2-2-x-2-x-2-2-x--2-2-x-2-x---|
D|-2-2-x--2-2-x-2-x-2-2-x--2-2-x-2-x---|
A|-------------------------------------|
E|-2---x-2----x-2-x-2---x-2----x-2-x---|

   Am
E|-------------------------------------|
B|-1-1-x--1-1-x-1-x-1-1-x--1-1-x-1-x---|
G|-2-2-x--2-2-x-2-x-2-2-x--2-2-x-2-x---|
D|-2-2-x--2-2-x-2-x-2-2-x--2-2-x-2-x---|
A|-0---x-0----x-0-x-0---x-0----x-0-x---|
E|-------------------------------------|

[Primeira Parte]

    E7M               
Ei moça, do

Que será que
       G#m7
Cê tá rindo?
      G#m7  Gm7  
A gente nunca
    F#m7
Conversou

Mas te ver de longe
   Am
É bom de mais

Bom, bom, bom

    E7M        
Ei moça, me diz
             G#m7
Onde você ta indo
            G#m7  
Talvez te chame
  Gm7   F#m7
Pra dançar

Mas não repara
     Am
Caso eu travar

É bom, bom, bom

    E7M       
Ei moça, o que cê
          G#m7
Passa no cabelo?
            G#m7  
E que tem cheiro
 Gm7  F#m7
De limão fresquin

Quero te apresentar
     Am
Pra minha mãe já
Composição de Lagum
213.584 exibições
  • Simplificar cifra
    • ½ Tom
    • A
    • Bb
    • B
    • C
    • Db
    • D
    • Eb
    • E
    • F
    • F#
    • G
    • Ab
  • Adicionar à lista

    0 comentários

    Ver todos os comentários

    Conseguiu tocar?

    138 Tocaram 37 Ainda não

    Grave um vídeo tocando A Gente Nunca Conversou e nos envie!

    00:00 / 00:00
    Outros vídeos desta música
    Repetir Qualidade Automático
    Outros vídeos desta música
    00:00 / 00:00
    Automático

    Cifra Club Pro

    Aproveite o Cifra Club com benefícios exclusivos e sem anúncios
    Cifra Club Pro
    Aproveite o Cifra Club com benefícios exclusivos e sem anúncios
    OK