Cifra Club

Aprenda

Bem Melhor

Lagum

Cifra: Principal (violão e guitarra)
tom: Bm
[Primeira Parte]

Bm7        D7M    
E eu, que nunca fui
            Em7
Exemplo de calma
Em7(9)
Agora eu to bem melhor
 Bm7          D7M
Se for, fica na
         Em7(9)
Minha memória
Em7(9)
E assim eu sigo só
Bm7        D7M        
E a gente se vê por
  Em7(9)
Aí, quem sabe?
Bm7        D7M        
E a gente se vê por
  Em7(9)
Aí, quem sabe?

[Refrão]

 Bm7    D7M           Em7(9)
Ser solto é bem melhor
 Bm7   D7M            Em7(9)
Ser leve é bem melhor
 Bm7    D7M        Em7(9)
Celebre a vida e só
Bm7     D7M          Em7(9)
E solto eu não tô só
Em7(9)
Eu nunca estive

E|-7-7-5-7---------------7-7-5-7------5-----|
B|----------7-7-5-----------------7-7---7---|
G|-----------------7-4----------------------|
D|------------------------------------------|
A|------------------------------------------|
E|------------------------------------------|

E|-7-7-5-7----------------------------------|
B|----------7-7-5------------5-7--7-5-------|
G|-----------------7-4---4-7----------7-4---|
D|------------------------------------------|
A|------------------------------------------|
E|------------------------------------------|

Bm7        D7M    
E eu, que nunca fui
         Em7(9)
Exemplo de calma
Em7(9)
Agora eu to bem melhor
 Bm7          D7M  
Se for, fica na
         Em7(9)
Minha memória
Em7(9)
E assim eu sigo só
Bm7        D7M    
E a gente se vê por
  Em7(9)
Aí, quem sabe?
Bm7        D7M  
E a gente se vê por
  Em7(9)
Aí, quem sabe?

Iéeeee

[Refrão]

 Bm7    D7M           Em7(9)
Ser solto é bem melhor
 Bm7   D7M            Em7(9)
Ser leve é bem melhor
 Bm7    D7M        Em7(9)
Celebre a vida e só
Bm7     D7M          Em7(9)
E solto eu não tô só
Em7(9)
Eu nunca estive
Composição de Pedro Calais
Colaboração e revisão:
92.940 exibições
    • ½ Tom
    • Am
    • Bbm
    • Bm
    • Cm
    • C#m
    • Dm
    • Ebm
    • Em
    • Fm
    • F#m
    • Gm
    • G#m
  • Adicionar à lista

    0 comentários

    Ver todos os comentários

    Conseguiu tocar?

    53 Tocaram 6 Ainda não

    Grave um vídeo tocando Bem Melhor e nos envie!

    00:00 / 00:00
    Outros vídeos desta música
    Repetir Qualidade Automático
    Outros vídeos desta música
    00:00 / 00:00
    Automático

    Cifra Club Pro

    Aproveite o Cifra Club com benefícios exclusivos e sem anúncios
    Cifra Club Pro
    Aproveite o Cifra Club com benefícios exclusivos e sem anúncios
    OK