Cifra Club

Reggae Bom

Lagum

Cifra: Principal (violão e guitarra)
Selo Cifra Club: esta cifra foi revisada para atender aos critérios oficiais da nossa Equipe de Qualidade.
tom: Ab
[Primeira Parte]

           Ab7M                                   
Você não precisa fazer
Cm7
O que não quiser
 Bbm7            
Ninguém veio aqui pra
         Eb7(9)
Te aplaudir, não
   Ab7M                                                   
Me olhe com esses olhos
         Cm7  
De quem nunca me viu antes
       Bbm7                 Eb7(9)
Antes mesmo eu já estive aqui

[Pré-Refrão]

             Bbm7  
Talvez seja cedo demais
  Cm7
Sair antes do sol sair
                Bbm7   
E eu não tenho medo
                A7M
Não mais, de ficar aqui

[Refrão]

 Ab7M                
Diz que vai voltar
Cm7                   
   Traz contigo aquele
 Bbm7     A7M
Reggae bom
Ab7M                       
Diz que vai voltar
Cm7
   Mas não vou ficar
   Bbm7
Parado amor
      A7M
Esperando cê chegar

[Primeira Parte]

           Ab7M                                   
Você não precisa fazer
Cm7
O que não quiser
 Bbm7            
Ninguém veio aqui pra
         Eb7(9)
Te aplaudir, não
   Ab7M                                                   
Me olhe com esses olhos
         Cm7  
De quem nunca me viu antes
       Bbm7                 Eb7(9)
Antes mesmo eu já estive aqui

[Pré-Refrão]

             Bbm7  
Talvez seja cedo demais
  Cm7
Sair antes do sol sair
                Bbm7   
E eu não tenho medo
                A7M
Não mais, de ficar aqui

[Refrão]

 Ab7M                
Diz que vai voltar
Cm7                   
   Traz contigo aquele
 Bbm7     A7M
Reggae bom

Ab7M                       
Diz que vai voltar
Cm7
   Mas não vou ficar
   Bbm7
Parado amor
      A7M
Esperando cê chegar, aqui

E|------------------------------------------|
B|------9-11-12-b13r12b13~~-9h11p9----------|
G|----8----------------------------12/13\12-|
D|-10---------------------------------------|
A|------------------------------------------|
E|------------------------------------------|

E|------------------------------------------|
B|------------------------------------------|
G|------------------------------------------|
D|-13/15\13---------------------------------|
A|----------15-14-13-11-13b15-11------------|
E|------------------------------------------|

E|------------------------------------------|
B|------------------------------------------|
G|------------------------------------------|
D|------------------------------------------|
A|--------11-11-----------------------------|
E|--13-11-------13--------------------------|

E|------------------------------------------|
B|------------------------------------------|
G|------------------------------------------|
D|-----------------------13/15-13~~~~-------|
A|-----11-14~~-13~~-11~~--------------------|
E|--13--------------------------------------|


 Ab7M                
Diz que vai voltar
Cm7                   
   Traz contigo aquele
 Bbm7     A7M
Reggae bom

Ab7M                       
Diz que vai voltar
Cm7
   Mas não vou ficar
   Bbm7
Parado amor
      A7M
Esperando cê chegar, aqui
Outros vídeos desta música
154.072 exibições
    • ½ Tom
    • A
    • Bb
    • B
    • C
    • Db
    • D
    • Eb
    • E
    • F
    • F#
    • G
    • Ab
  • Adicionar à lista

Afinação da cifra

Afinador online

    0 comentários

    Ver todos os comentários

    Entre para o Cifra Club PRO

    Tenha acesso a benefícios exclusivos no App e no Site

    • Chega de anúncios

    • Mais recursos no app do Afinador

    • Atendimento Prioritário

    • Aumente seu limite de lista

    • Ajude a produzir mais conteúdo

    Cifra Club Pro

    Aproveite o Cifra Club com benefícios exclusivos e sem anúncios
    Cifra Club Pro
    Aproveite o Cifra Club com benefícios exclusivos e sem anúncios
    OK