Cifra Club

Transante

Lagum

Cifra: Principal (violão e guitarra)
tom: C#m
[Intro] C#m7  E7M(9)  A7  G#7(13-) 
        C#m7  E7M(9)  A7  G#7(13-) 

[Tab - Intro]

E|-----------------------------------|
B|-5--5------------------------------|
G|-4--4------------------------------|
D|-6--6------------------------------|
A|-4--4------7h9p7-------------------|
E|-------7h9-------h9--7--9----------|

E|-----------------------------------|
B|-7--7------------------------------|
G|-8--8------------------------------|
D|-6--6------------------------------|
A|-7--7------7h9p7--9--9p7-----------|
E|-------7h9---------------9-7\5-----|

E|-----------------------------------|
B|-5--5-----------------------------5|
G|-6--6-----------------------------5|
D|-6--6------9-7-6-7-6--------------4|
A|---------------------7-6-4-3-------|
E|-5--5--5/7--------------------3/4-4|

[Primeira Parte

    C#m7         E7M(9)
Imagina só, nós dois a sós
A6                    G#7(13-)
   Tipo um vazio pra dois sóis
         C#m7      E7M(9)
Como se nada importasse 
         A6  G#7(13-)
Além de nós

      C#m7     E7M(9)  A6
Você sabe como é   mulher
               G#7(13-) 
Eu não tô nem aí
                  C#m7
Quando você tá aqui
                    E7M(9)
Pois basta eu te ouvir
 A6            G#7(13-)
Fica até mais fácil pra

    C#m7      E7M(9) 
Dormir em paz  
     A6        G#7(13-)
Sem mais confusão
C#m7            E7M(9)    A6
     Sou mais, momentos reais
      G#7(13-)         C#m7
Aqui deixo minha gratidão

[Refrão]

 C#m7           E7M(9)
Passa o tempo, mas o vento
A6               G#7(13-)
   Não parou de soprar
 C#m7       E7M(9)      A6
Pensamento contra sentimento
        G#7(13-)
Só pra contrariar

 C#m7           E7M(9)
Passa o tempo, mas o vento
A6               G#7(13-)
   Não parou de soprar
 C#m7       E7M(9)      A6
Pensamento contra sentimento
        G#7(13-)
Só pra contrariar

( C#m7  E7M(9)  A6  G#7(13-) ) 
( C#m7  E7M(9)  A6  G#7(13-) ) 

[Ponte]

   C#m7           E7M(9) 
Espelho, espelho meu
  A6            
Existe alguém no mundo 
      G#7(13-)
Mais feliz do que eu?

( C#m7  E7M(9)  A6  G#7(13-) )

E|-------------------------------------|
B|-------------------------------------|
G|------9-9-----9-11p9-------x-11-11---|
D|-9h11---11-11--------9h11--x-9--9-11-|
A|-------------------------------------|
E|-------------------------------------|

   C#m7           E7M(9) 
Espelho, espelho meu
  A6            
Existe alguém no mundo 
       G#7(13-)
Mais realizado do que eu?

( C#m7  E7M(9)  A6  G#7(13-) )

E|-12-9--------------------------------|
B|------12-9---------------------------|
G|-----------12p11/9-11p9--------------|
D|------------------------11-----------|
A|-------------------------------------|
E|-------------------------------------|

E|-12-9--------------------------------|
B|-14---12-9---------------------------|
G|-----------11p9---------9------------|
D|----------------11-9h11--------------|
A|-------------------------------------|
E|-------------------------------------|

[Refrão]

 C#m7           E7M(9)
Passa o tempo, mas o vento
A6               G#7(13-)
   Não parou de soprar
 C#m7       E7M(9)      A6
Pensamento contra sentimento
        G#7(13-)
Só pra contrariar
 C#m7           E7M(9)
Passa o tempo, mas o vento
A6               G#7(13-)
   Não parou de soprar
 C#m7       E7M(9)      A6
Pensamento contra sentimento
        G#7(13-)
Só pra contrariar

[Solo] C#m7  E7M(9)  A6  G#7(13-) 
       C#m7  E7M(9)  A6  G#7(13-)
       C#m7  E7M(9)  A6  G#7(13-)

 C#m7           E7M(9)
Passa o tempo, mas o vento
A6               G#7(13-)
   Não parou de soprar
 C#m7       E7M(9)      A6
Pensamento contra sentimento
        G#7(13-)  C#m7
Só pra contra___riar
Composição de Francisco Jardim / Glauco Borges / Leonardo Dias / Otávio Cardoso / Pedro Calais
Colaboração e revisão:
16.928 exibições
    • ½ Tom
    • Am
    • Bbm
    • Bm
    • Cm
    • C#m
    • Dm
    • Ebm
    • Em
    • Fm
    • F#m
    • Gm
    • G#m
  • Adicionar à lista

    0 comentários

    Ver todos os comentários

    Conseguiu tocar?

    8 Tocaram 3 Ainda não

    Grave um vídeo tocando Transante e nos envie!

    00:00 / 00:00
    Outros vídeos desta música
    Repetir Qualidade Automático
    Outros vídeos desta música
    00:00 / 00:00
    Automático

    Cifra Club Pro

    Aproveite o Cifra Club com benefícios exclusivos e sem anúncios
    Cifra Club Pro
    Aproveite o Cifra Club com benefícios exclusivos e sem anúncios
    OK