Cifra Club

May 16th

Lagwagon

Cifra: Principal (violão e guitarra)
Selo Cifra Club: esta cifra foi revisada para atender aos critérios oficiais da nossa Equipe de Qualidade.
tom: D
[Intro] 

[Parte 01 De 03] 

   D5         B5         G5               A5
E|--------------------------------------------------------|
B|--------------------------------------------------------|
G|-9s7s6s7----9s7s6s7----9s7s6s7----7-6-4-2---------------|
D|-x-x-x-x----x-x-x-x----x-x-x-x----x-x-x-2---------------|
A|-7s5s4s5----7s5s4s5----7s5s4s5----5s4s2-0---------------|
E|--------------------------------------------------------|

[Parte 02 De 03]2x

   D5                          B5         
E|--------------------------------------------------------|
B|--------------------------------------------------------|
G|-9s7s6s7-7-7-7-6-6-6-7-7-7---9s7s6s7-7-7-7-6-6-6-7-7-7--|
D|-x-x-x-x-x-x-x-x-x-x-x-x-x---x-x-x-x-x-x-x-x-x-x-x-x-x--|
A|-7s5s4s5-5-5-5-4-4-4-5-5-5---7s5s4s5-5-5-5-4-4-4-5-5-5--|
E|--------------------------------------------------------|

   G5                          A5         
E|--------------------------------------------------------|
B|--------------------------------------------------------|
G|-9s7s6s7-7-7-7-6-6-6-7-7-7----7-6-4--------7-7-7-6-6-6--|
D|-x-x-x-x-x-x-x-x-x-x-x-x-x----x-x-x-7-7-7--x-x-x-x-x-x--|
A|-7s5s4s5-5-5-5-4-4-4-5-5-5----5s4s2-0-0-0--5-5-5-4-4-4--|
E|--------------------------------------------------------|

[Parte 03 De 03] 

E|--------------------------------------------------------|
B|-----------------7------7----8p7------------------------|
G|-----7------9--------------------9-7--------------------|
D|-7-7----7-7----7----7-7----7----------------------------|
A|--------------------------------------------------------|
E|--------------------------------------------------------|

[Primeira Parte] 

   D5 B5 D5 F#5       G5 A5 D5 A5            B5      G5 A5
E|--------------------------------------------------------|
B|--------------------------------------------------------|
G|-7--4--7-----3-7-6--------7----------------4--7-6-------|
D|-7--4--7--4--x-x-x--5--7--7--7-7-11-11-11--4--x-x--5--7-|
A|-5--2--5--4--1s5s4--5--7--5--7-7-x--x--x---2--5-4--5--7-|
E|----------2---------3--5-----5-5s9--9--9-----------3--5-|

D5              B5
No more waiting on them
D5                      F#5
as you rise inside new rooms
         G5           
It's official you've gone
A5
you can live for no one else
D5      A5            B5
Man the guilt must be huge
    G5                    A5
As there's no gain in failure you succeed at being mine

D5                   B5   D5                        F#5
Yeah, old friend, see you there I will be proud from afar
G5                    A5         
I can paint a picture in a moment of 
D5       A5                B5
memories and there aren't many left
G5                  A5
I am extradited, uninvited


[Refrão]2x

   D5   A/C#         B5   Bb5                 
E|--------------------------------------------------------|
B|--------------------------------------------------------|
G|-7-7--9-9-9-11-9---4-4--9-9-9-11-9----------------------|
D|-7-7--x-x-x-x--x---4-4--x-x-x-x--x----------------------|
A|-5-5--7-7-7-9--7---2-2--7-7-7-9--7----------------------|
E|--------------------------------------------------------|

   G5           A5
E|--------------------------------------------------------|
B|--------------------------------------------------------|
G|-7-7-7-9--9-9-11--11-11-9-------------------------------|
D|-x-x-x-x--x-x-x---x--x--x-------------------------------|
A|-5-5-5-7--7-7-9---9--9--7-------------------------------|
E|--------------------------------------------------------|

D5 A/C# 

B5 Bb5      G         A
It's just another saturday


[Passagem]

   D5        A5       B5      G5 
E|--------------------------------------------------------|
B|-----------------7------7----8p7------------------------|
G|-----7------9--------------------9-7--------------------|
D|-7-7----7-7----7----7-7----7----------------------------|
A|--------------------------------------------------------|
E|--------------------------------------------------------|

   D5        F#5       B5      G5 
E|--------------------------------------------------------|
B|-----------------7------7-------------------------------|
G|-----7------9-----------------9-7-6---------------------|
D|-7-7----7-7----7----7-7----7--------7-------------------|
A|--------------------------------------------------------|
E|--------------------------------------------------------|

[Segunda Parte] 

D5             B5
Take a step to freedom
D5                      F#5
You and her against this cruel world
         G5           A5
Take a breath of shelter and exhale
 
D5      A5      B5
Trust and allegiance
G5                      A5
Liberate yourself from hell

[Refrão]3x

   D5   A/C#         B5   Bb5                 
E|--------------------------------------------------------|
B|--------------------------------------------------------|
G|-7-7--9-9-9-11-9---4-4--9-9-9-11-9----------------------|
D|-7-7--x-x-x-x--x---4-4--x-x-x-x--x----------------------|
A|-5-5--7-7-7-9--7---2-2--7-7-7-9--7----------------------|
E|--------------------------------------------------------|

   G5           A5
E|--------------------------------------------------------|
B|--------------------------------------------------------|
G|-7-7-7-9--9-9-11--11-11-9-------------------------------|
D|-x-x-x-x--x-x-x---x--x--x-------------------------------|
A|-5-5-5-7--7-7-9---9--9--7-------------------------------|
E|--------------------------------------------------------|

D5 A/C# 

B5 Bb5      G         A
It's just another saturday

[Passagem]

   A5
E|--------------------------------------------------------|
B|--------------------------------------------------------|
G|-11-11-11-11-11-11-9-9-9-9-9-9--7-7-7-7-7--6-6-6-6-6-6--|
D|-x--x--x--x--x--x--x-x-x-x-x-x--x-x-x-x-x--x-x-x-x-x-x--|
A|-9--9--9--9--9--9--7-7-7-7-7-7--5-5-5-5-5--4-4-4-4-4-4--|
E|--------------------------------------------------------|

   A5
E|--------------------------------------------------------|
B|--------------------------------------------------------|
G|-11-11-11-11-11-11-9-9-9-9-9-9--7-7-7-7-7--6-6-6-6-6-6--|
D|-x--x--x--x--x--x--x-x-x-x-x-x--x-x-x-x-x--x-x-x-x-x-x--|
A|-9--9--9--9--9--9--7-7-7-7-7-7--5-5-5-5-5--4-4-4-4-4-4--|
E|--------------------------------------------------------|

   F#5               E5           G5         A5
E|--------------------------------------------------------|
B|--------------------------------------------------------|
G|-11-11-11-11-11-11-9-9-9-9-9-9--7-7-7-7-7--6-6-6-6-6-6--|
D|-x--x--x--x--x--x--x-x-x-x-x-x--x-x-x-x-x--x-x-x-x-x-x--|
A|-9--9--9--9--9--9--7-7-7-7-7-7--5-5-5-5-5--4-4-4-4-4-4--|
E|--------------------------------------------------------|

   D5
E|--------------------------------------------------------|
B|--------------------------------------------------------|
G|-7-7-7-7-7----------------------------------------------|
D|-7-7-7-7-7----------------------------------------------|
A|-5-5-5-5-5----------------------------------------------|
E|--------------------------------------------------------|

[Solo] 

   B5 B5 B5 B5       G5 G5 G5 G5 G5       A5 A5 A5 A5 A5
E|--------------------------------------------------------|
B|-7-7-7-7-7-7-7-7-7-7-7-7-7-7-7-7-7-7-7-7-7-7-7-7-7-7-7--|
G|--------------------------------------------------------|
D|--------------------------------------------------------|
A|--------------------------------------------------------|
E|--------------------------------------------------------|

   D5         B5           G5        A5
E|--------------------------------------------------------|
B|--------------------------------------------------------|
G|----------6-7~~~~--9-7-6-7~~~~-6~~----------------------|
D|-7~~~~7-9--------------------------9-7~~~~--------------|
A|--------------------------------------------------------|
E|--------------------------------------------------------|

   D5           B5          G5           A5
E|--------------------------------------------------------|
B|-s7--------------------------------7--------------------|
G|----7-------6-----6-7-6---9-7-6--7---7s9----------------|
D|------9-7-9---8-9-------9-------------------------------|
A|--------------------------------------------------------|
E|--------------------------------------------------------|

[Final] 

   D5        A5       B5      G5 
E|--------------------------------------------------------|
B|-----------------7------7----8p7------------------------|
G|-----7------9--------------------9-7--------------------|
D|-7-7----7-7----7----7-7----7----------------------------|
A|--------------------------------------------------------|
E|--------------------------------------------------------|

   D5        A5     D5   
E|--------------------------------------------------------|
B|--------------------------------------------------------|
G|-----7------9-----7-------------------------------------|
D|-7-7----7-7----7--7-------------------------------------|
A|------------------5-------------------------------------|
E|--------------------------------------------------------|
Outros vídeos desta música
    33.728 exibições
      • ½ Tom
      • A
      • Bb
      • B
      • C
      • Db
      • D
      • Eb
      • E
      • F
      • F#
      • G
      • Ab
    • Adicionar à lista

    Afinação da cifra

    Afinador online

      0 comentários

      Ver todos os comentários

      Entre para o Cifra Club PRO

      Tenha acesso a benefícios exclusivos no App e no Site

      • Chega de anúncios

      • Mais recursos no app do Afinador

      • Atendimento Prioritário

      • Aumente seu limite de lista

      • Ajude a produzir mais conteúdo

      Cifra Club Pro

      Aproveite o Cifra Club com benefícios exclusivos e sem anúncios
      Cifra Club Pro
      Aproveite o Cifra Club com benefícios exclusivos e sem anúncios
      OK