Cifra Club

Renata

Latino

Cifra: Principal (violão e guitarra)
Tom: F
Intro:
    Gm            Gm            F
E|-3-3--10-10-6--3-3--8-8-5--1-1--5-8-5-8-5-10-10-10-8-6-8-10-|
B|-3-3-----------3-3---------1-1------------------------------|
G|-3-3-----------3-3---------2-2------------------------------|
D|-5-5-----------5-5---------3-3------------------------------|
A|-5-5-----------5-5---------3-3------------------------------|
E|-3-3-----------3-3---------1-1------------------------------|

    Gm            Gm            F
E|-3-3--10-10-6--3-3--8-8-5--1-1--5-8-5-8-5-10-10-10-8-6-5----|
B|-3-3-----------3-3---------1-1---------------------------8--|
G|-3-3-----------3-3---------2-2------------------------------|
D|-5-5-----------5-5---------3-3------------------------------|
A|-5-5-----------5-5---------3-3------------------------------|
E|-3-3-----------3-3---------1-1------------------------------|

Gm
Num golpe de olhar
                F
Ganhou meu coração
            D                Gm
Mas eu não imaginava a decepção

              Gm
Por ela fui fiel
                F
Tão cego eu fiquei
                 D
Bingo,night, futebol

              Gm
Amigos eu deixei

            F
Foi irracional
           Gm
O que ela fez
             F    D
Mas vou deletar
             Gm
Sua insentatez

               F
Renata ingrata
             D                Gm
Trocou o meu amor por uma ilusão
              F
Renata ingrata
            D                   Gm
Quem planta sacanagem colhe solidão

Gm
Até pra namorar
              F
A bela foi atriz
                D
Fingindo que eu era
                   Gm
O que ela sempre quis
               Gm
A lua entristeceu
                F
O céu mudou de cor
               D
Renata foi embora
             Gm
E a deprê ficou

            F
Foi irracional
           Gm
O que ela fez
             F    D
Mas vou deletar
             Gm
Sua insentatez

    Gm         F             Gm
E|-3---------1-------------3----------|
B|-5---------3-------------5----------|
G|-5----4----3----3----3---5----------|
D|-3---3--3--2---2----2----3----------|
A|-3--3--3---1--1----1-----3----------|
E|-3-3--3----1-1--1-1------3----------|

              F
Renata ingrata
             D                  Gm
Trocou o meu amor por uma ilusão
              F
Renata ingrata
            D                   Gm
Quem planta sacanagem colhe solidão
               F
Renata ingrata
             D                  Gm
Trocou o meu amor por uma ilusão
              F
Renata ingrata
            D                   Gm
Quem planta sacanagem colhe solidão

            F
Foi irracional
           Gm
O que ela fez
             F    D
Mas vou deletar
             Gm
Sua insentatez

               F
Renata ingrata
             D                  Gm
Trocou o meu amor por uma ilusão
              F
Renata ingrata
            D                    Gm
Quem planta sacanagem, colhe solidão

               F
Renata ingrata
             D                  Gm
Trocou o meu amor por uma ilusão
              F
Renata ingrata
            D                    Gm
Quem planta sacanagem, colhe solidão

Renata

E|------------------------------------------|
B|------------------------------------------|
G|-6-6-----6-6------------------------------|
D|----7-------7-----6-7-6-7--9-9-9-6-6------|
A|-----9-9-----7-7----------------------7-9-|
E|------------------------------------------|
exibições 112.721
Acordes para:

    0 comentários

    mostrar mais comentários

    Conseguiu tocar?

    5 tocaram 0 ainda não

    Grave um vídeo tocando Renata e mande pra gente!

    00:00 / 00:00
    outros vídeos desta música
    repetir qualidade Automático
    Outros vídeos desta música
    00:00 / 00:00
    Automático
    OK