Cifra Club

Santo Espírito

Laura Souguellis

Cifra: Principal
exibições 1.139.225
Tom: A (com acordes na forma de G) Capotraste na 2ª casa
Refrão:
 D9
Santo Espírito, és bem-vindo aqui
    G5(7M)             Em7
Vem inundar, encher esse lugar
  D9
É o desejo do meu coração
       G5(7M)              Em7
Sermos inundados por Tua glória, Senhor

 D9
Santo Espírito, és bem-vindo aqui
    G5(7M)             Em7
Vem inundar, encher esse lugar
  D9
É o desejo do meu coração
       G5(7M)              Em7
Sermos inundados por Tua glória
    D9                 G5(7M)
Senhor, Tua glória Senhor
           D9  G5(7M)
Tua glória

Primeira Parte:
D9
   Não há nada igual
                G5(7M)
Não há nada melhor
                              D9
A que se compara à esperança viva
           G5(7M)
Tua presença

D9
   Eu provei e vi
              G5(7M)
O mais doce amor

Que liberta o meu ser
              D9
E a vergonha desfaz
           G5(7M)
Tua presença

Refrão:
 D9
Santo Espírito, és bem-vindo aqui
    G5(7M)             Em7
Vem inundar, encher esse lugar
  D9
É o desejo do meu coração
       G5(7M)              Em7
Sermos inundados por Tua glória

 D9
Santo Espírito, és bem-vindo aqui
    G5(7M)             Em7
Vem inundar, encher esse lugar
  D9
É o desejo do meu coração
       G5(7M)              Em7
Sermos inundados por Tua glória, Senhor

Base solo 2x: D9  G5(7M)  Em7

Solo:

Parte 01 de 05

E|----------------------------------------------------|
B|---------------9------------------------------------|
G|-4/9-9~-9-9h11---11--11-9-9-------------------------|
D|----------------------------------------------------|
A|----------------------------------------------------|
E|----------------------------------------------------|

Parte 02 de 05

E|----------------------------------------------------|
B|--------9----10-12----------------------------------|
G|-9-9h11---11-------9-8------------------------------|
D|-----------------------9----------------------------|
A|----------------------------------------------------|
E|----------------------------------------------------|

Parte 03 de 05

E|----------------------------------------------------|
B|----------------------------------------------------|
G|----------------------------------------------------|
D|-9/11-9---------------------------------------------|
A|--------9-9h11-11-11~--11h12-11-11------------------|
E|----------------------------------------------------|

Parte 04 de 05

E|----------------------------------------------------|
B|---------------9-------------------9-----12---------|
G|-4/9-9-9~-9-11---11--11-9-9-9-9-11----11----9~------|
D|----------------------------------------------------|
A|----------------------------------------------------|
E|----------------------------------------------------|

Parte 05 de 05

E|----------------------------------------------------|
B|----------------------------------------------------|
G|-9/11-9---------------------------------------------|
D|--------9-9h11-11~--7-6~-7--7/14-14~----------------|
A|----------------------------------------------------|
E|----------------------------------------------------|

Segunda Parte:
G5(7M)           D/F#
       Vamos provar
       Em7          D/F#
Quão real é Tua presença
G5(7M)           D/F#
       Vamos provar 
        Em7        D/F#
A Tua glória e bondade
G5(7M)           D/F#
       Vamos provar
       Em7          D/F#
Quão real é Tua presença
G5(7M)           D/F#
       Vamos provar 
        Em7        D/F#
A Tua glória e bondade

G5(7M)           D/F#
       Vamos provar
       Em7          D/F#
Quão real é Tua presença
G5(7M)           D/F#
       Vamos provar 
        Em7        D/F#
A Tua glória e bondade
G5(7M)           D/F#
       Vamos provar
       Em7          D/F#
Quão real é Tua presença
G5(7M)           D/F#
       Vamos provar 
        Em7        D/F#     G5(7M)
A Tua glória e bondade, Senhor

Refrão:
 D9
Santo Espírito, és bem-vindo aqui
    G5(7M)             Em7
Vem inundar, encher esse lugar
  D9
É o desejo do meu coração
       G5(7M)              Em7
Sermos inundados por Tua glória

 D9
Santo Espírito, és bem-vindo aqui
    G5(7M)             Em7
Vem inundar, encher esse lugar
  D9
É o desejo do meu coração
       G5(7M)              Em7
Sermos inundados por Tua glória, Senhor
Acordes para:

    0 comentários

      mostrar mais comentários

      Conseguiu tocar?

      50tocaram3ainda não

      Grave um vídeo tocando Santo Espírito e mande pra gente!

      00:00 / 00:00
      outros vídeos desta música
      repetirqualidadeautomática
      Outro vídeos desta música
        00:00 / 00:00
        automática
        Capítulos
        • Tocando a música
        • Dicas Iniciais / Equipamentos
        • Acordes do Refrão
        • Tocando Refrão
        • Ritmo do Refrão
        • Tocando a Primeira Parte
        • Tocando o Solo
        • Solo - Parte 1 de 5
        • Solo - Parte 2 de 5
        • Solo - Parte 3 de 5
        • Solo - Parte 4 de 5
        • Solo - Parte 5 de 5
        • Acordes da Segunda Parte
        • Tocando a Segunda Parte
        • Ritmo da Segunda Parte
        • Tocando o Refrão Final
        • Encerramento
        • Ficha Técnica
        OK