Cifra Club

Madrigal

Lazza

Cifra: Principal (violão e guitarra)
Tom: G
Introdução:

G

E|------------------------------------------------------------------------------------------------------------
A|------------------------------------------------------------------------------------------------------------ 
D|----2-----------------------0----------------------------2---------------------------0----------------------
G|-------0-------------0-----------0---------------0-------------0-------------0-------------0---------------0 
B|----------3------3--------------------3------3--------------------3-----3----------------------3------3----- 
E|-------------3----------------------------2--------------------------3-----------------------------2-------- 

C

E|------------------------------------------------------------------------------------------------------------
A|---3-----------------------2------------------------------3-------------------------2-----------------------
D|------------------------------------------------------------------------------------------------------------ 
G|-------0-------------0-----------0---------------0-------------0-------------0-------------0---------------0 
B|----------3------3--------------------3------3--------------------3-----3----------------------3------3----- 
E|-------------3----------------------------2--------------------------3-----------------------------2--------  


** No verso abaixo e no segundo (Bem aqui me canta...), continua o dedilhado da introdução, mas apenas a sequencia do G...

Em              D 
Quando a luz do sol  
Em       D 
Invade o céu 
Em         D   Em     D  
Ilumina a pele de mulher 
Em              D    Em     D 
E o topo da montanha de cristal 
Em              D  Em   D  Em    
Acendendo a  terra até o luar 
 
C              Bm 
Agua nasce  e corre 
C         Bm 
Vai serpenteando 
C               Bm 
Por entre a mata verde 
Am          B 
Saciando a sede  
       G      C        D    G     
Essa beleza e muita paz   
  Em           Am      D  
Cabocla o que preciso so  
C           D     G       
você é que me traz              
       C         D    G              
Pura beleza e  muita paz   
Em               Am           
É o que quero e aqui          
D                G         
Contigo eu vou ficar            

Intro ate o fim do    "Contigo eu vou ficar"  Agora a sequencia de C 
 
Em            D    Em       D 
Bem aqui me canta uma canção 
Em            D    Em       D 
Dando a vida a graça natural 
Em            D    Em       D 
Nuvens cor de rosa enfeitam o lar 
Em            D    Em   D  Em 
Da moça com sorriso sem igual 
 
C            Bm               
Como eu vou dizer 
C            Bm  
Que raio de luar 
C                   Bm  
Não brilham mais do que 
Am         B 
O luz que vem do seu olhar 
       G      C        D    G     
Essa beleza e muita paz   
  Em           Am      D  
Cabocla o que precisa so  
C           D     G       
você é que me traz              2X
       C         D    G              
Pura beleza e  muita paz   
Em            Am           
É o que quer aqui          
D                G         
Contigo eu vou ficar     
exibições 9.820
Acordes para:

    0 comentários

    mostrar mais comentários

    Conseguiu tocar?

    0 tocaram 0 ainda não

    Grave um vídeo tocando Madrigal e mande pra gente!

    00:00 / 00:00
    outros vídeos desta música
    repetir qualidade Automático
    Outros vídeos desta música
    00:00 / 00:00
    Automático
    OK