Cifra Club

Aprenda

Eu Juro

Leandro & Leonardo

Cifra: Versão 5 (violão e guitarra)
tom: C
C         F/A     G/B   C
Eu vejo a luz do teu olhar 
           F    G   Am
Como uma noite de luar 
            F            G G7           
Luz que me guia onde eu for 
C                                                                          
Você 
       F/A   C/G   C                              
Meu motivo pra sorrir 
          F    G      C   
Caminho certo pra seguir 
          C/G 
Saiba que é só teu 
 D/F#             G  G7 
Meu verdadeiro amor 
C     
Eu juro 
        Am  
Por mim mesmo, 
                   Am
Por Deus, por meus pais 
        F       G   
Vou te amar 
C 
Eu juro 
          Am             Em  
Que esse amor não acaba jamais 
        F    G7
Vou te amar 
Dm                 Gm 
É tanto querer, é tanta paixão 
Dm                  Gm
Te amo do fundo do meu coração 
    c
Eu juro 
C      F/A G/B   C
Um homem e uma mulher 
         F         G   Am
Juntos pro que der e vier 
        F             G     G7
A meia luz, a dois, a sós 
 C
Então 
    F/A  G/B   C
A gente vai sonhar 
      F      G   Am
E conseguir realizar 
    C/G 
Um mundo de amor sem fim 
  D/F#                G   G7
Porque só depende de nós
C
Eu juro 
         Am
Por mim mesmo, 
                   Em
Por Deus, por meus pais 
         F   G
Vou te amar 
C 
Eu juro 
          Am              Em         
Que esse amor não acaba jamais 
        F    G7
Vou te amar 
 Dm                 Gm 
É tanto querer, é tanta paixão 
Dm                  Gm
Te amo do fundo do meu coração 
C
Eu juro 

SOLO C Am Em F G7 C Am Em C G7 

E|-----------------------------------------------------------------------
B|-----------------------------------------------------------------------
G|--------9-7--7--5-----2-4---2-------2-4-2------------------------------
D|--9-8-10----9-----7-5-----3---2-4-5------------------------------------
A|-8----------------------------------------8-9--------------------------
E|-----------------------------------------------------------------------

E|-15-13-15-16-17-19-17-15--------------------------17-19-19-17-18-------
B|-------------------------17-16-15-18----15-----18----------------------
G|-------------------------------------17------17------------------------
D|-----------------------------------------------------------------------
A|-----------------------------------------------------------------------
E|----------------------------------------------------------------------- 

C
Eu juro 
         Am
Por mim mesmo, 
                   Em
Por Deus, por meus pais 
         F   G
Vou te amar 
C 
Eu juro 
          Am              Em         
Que esse amor não acaba jamais 
        F    G7
Vou te amar 
 Dm                 Gm 
É tanto querer, é tanta paixão 
Dm                  Gm
Te amo do fundo do meu coração 
C
Eu juro
Composição de Demian / Frank Meyers / Gary Baker
Colaboração e revisão:
  • carlos penteado
12.112 exibições
  • Simplificar cifra
    • ½ Tom
    • A
    • Bb
    • B
    • C
    • Db
    • D
    • Eb
    • E
    • F
    • F#
    • G
    • Ab
  • Adicionar à lista

    0 comentários

    Ver todos os comentários
    00:00 / 00:00
    Outros vídeos desta música
    Repetir Qualidade Automático
    Outros vídeos desta música
    00:00 / 00:00
    Automático

    Cifra Club Pro

    Aproveite o Cifra Club com benefícios exclusivos e sem anúncios
    Cifra Club Pro
    Aproveite o Cifra Club com benefícios exclusivos e sem anúncios
    OK