Cifra Club

Um Sonhador

Leandro & Leonardo

Cifra: Principal (violão e guitarra)
tom: C
[Intro] Dm  G7  C
        Dm  G7  C  F  C

[Tab - Solo]

E|------------------------------------------|
B|-----8---------------------8--------------|
G|-7/9---9/7-5-----5h7~-7/9----9/7-5------5~|
D|-------------7-5--------------------7-5---| (2x)
A|------------------------------------------|
E|------------------------------------------|

E|------------------------------------------|
B|-8b10--8-6-5------------------------------|
G|------------------------------------------|
D|------------------------------------------|
A|------------------------------------------|
E|------------------------------------------|

[Primeira Parte]

                     C
Eu não sei pra onde vou
                     Dm
Pode até não dar em nada
                    Bb  G7
Minha vida segue o sol
                       C   F  C
No horizonte dessa estrada

Eu nem sei mesmo quem sou
                  Dm
Nessa falta de carinho
                        Bb  G7
Por não ter um grande amor
                 C    C7
Aprendi à ser sozinho

[Pré-Refrão]

                     F
E onde o vento me levar
                   C
Vou abrir meu coração
                    Dm
Pode ser que num caminho
                      F
Num atalho ou num sorriso
     G7          C  C7
Aconteça uma paixão

[Refrão]

   F  G  Am
E vou achar
                 F
Num toque do destino
                  C
O brilho de um olhar
              G7
Sem medo de amar
     F   G  Am
Não vou deixar
                F
De ser um sonhador
                    C
Pois sei vou encontrar
                      G7  F
No fundo dos meus sonhos
   G7          C
O meu grande amor

[Solo] Dm  G7  C
       Dm  G7  C  C7

[Tab - Solo]

E|------------------------------------------|
B|-----8---------------------8--------------|
G|-7/9---9/7-5-----5h7~-7/9----9/7-5------5~|
D|-------------7-5--------------------7-5---| (2x)
A|------------------------------------------|
E|------------------------------------------|

[Pré-Refrão]

                     F
E onde o vento me levar
                   C
Vou abrir meu coração
                    Dm
Pode ser que num caminho
                      F
Num atalho ou num sorriso
     G7          C  C7
Aconteça uma paixão

[Refrão]

   F  G  Am
E vou achar
                 F
Num toque do destino
                  C
O brilho de um olhar
              G7
Sem medo de amar
      F  G  Am
Não vou deixar
                F
De ser um sonhador
                    C
Pois sei vou encontrar
                      G7  F
No fundo dos meus sonhos
   G7          C
O meu grande amor
Dm    F           C
   O meu grande amor
Dm    F  G7          C
   O meu    grande amor

E|-10/12------------------------------------|
B|-------13~--10-----13---------------------|
G|---------------12-------------------------|
D|------------------------------------------|
A|------------------------------------------|
E|------------------------------------------|

E|15/17-15~---------------------------------|
B|-----------15b17r15-13---------13---------|
G|------------------------12/14-------------|
D|------------------------------------------|
A|------------------------------------------|
E|------------------------------------------|

E|------8-------8---------------------------|
B|-9/10---10-8~---8-6~----------8~----------|
G|---------------------5-7-7/9--------------|
D|------------------------------------------|
A|------------------------------------------|
E|------------------------------------------|
00:00 / 00:00
Outros vídeos desta música
Repetir
Outros vídeos desta música
Composição de César Augusto / Piska
678.403 exibições
  • Simplificar cifra
    • ½ Tom
    • A
    • Bb
    • B
    • C
    • Db
    • D
    • Eb
    • E
    • F
    • F#
    • G
    • Ab
  • Adicionar à lista

    0 comentários

    Ver todos os comentários

    Entre para oCifra Club PRO

    Tenha acesso a benefícios exclusivos no App e no Site

    • Chega de anúncios

    • Prioridade de compra em lançamentos

    • Mais recursos no app do Afinador

    • Atendimento Prioritário

    • Descontos nos produtos Cifra Club

    • Ajude a produzir mais conteúdo

    00:00 / 00:00

    Cifra Club Pro

    Aproveite o Cifra Club com benefícios exclusivos e sem anúncios
    Cifra Club Pro
    Aproveite o Cifra Club com benefícios exclusivos e sem anúncios
    OK