Cifra Club

João de Barro

Leandro Léo

Cifra: Principal
exibições 573.443
Tom: E
Intro:


   C#m             B
E|--9-----11---12---7-------7h9p7-----------|
B|--9---9-----------7-7-----7-----7---------|
G|--9-9------9------8---8-----------8-------|
D|-11---------------9-----9-----------------|
A|------------------------------------------|
E|------------------------------------------|


   A
E|-5--------5------5-------5---7-----7------|
B|-5----5-----5------5---5---5--7---7--7----|
G|-6--6---6-----6------6----------8---------|
D|------------------------------------------|
A|-0----------------------------------------|
E|------------------------------------------|


   C#m             B                    harm
E|--9-----11---12---7-------7h9p7------0-12-|
B|--9---9-----------7-7-----7-----7----0--12|
G|--9-9------9------8---8-----------8--6----|
D|-11---------------9-----9------------7----|
A|-------------------------------------0----|
E|------------------------------------------|



C#m7        B4
 O meu desafio é andar sozinho
A5(9)
 Esperar no tempo os nossos destinos
C#m7                 B4             A5(9)
  Não olhar pra trás, esperar a paz
O que me traz        C#m7  B4  A9
A ausência do seu olhar


C#m7               B4
 Traz nas asas um novo dia
A5(9)
 Me ensina a caminhar
C#m7        B4                  A9
  Mesmo eu sendo menino aprendi

C#m7                       B4
  Oh meu Deus me traz de volta essa menina
A5(9)
 Porque tudo que eu tenho é o seu amor
C#m7        B4
   João de Barro eu te entendo agora

A9                                 C#m7   B4  A5(9)
 Por favor me ensine como guardar meu amor


   C#m7             B4
E|----------0----------------0-------------|
B|--------0---0------------0---0-----------|
G|------6-------6--------4-------4---------|
D|----6-----------6----4-----------4-------|
A|-/4---------------\2---------------------|
E|-----------------------------------------|


   A5(9)
E|---------0---------------0---------------|
B|-------0---0-----------0---0-------------|
G|-----2-------2-------2-------2-----------|
D|---2-----------2---2-----------2---------|
A|-0---------------0-----------------------|
E|-----------------------------------------|


    C#m7             B4
E|----------0----------------0---------0---|
B|--------0---0------------0---0-------0---|
G|------6-------6--------4-------4-----2---|
D|----6-----------6----4-----------4---2---|
A|-/4---------------\2-----------------0---|
E|-----------------------------------------|


    A5(9)
E|--------------0--------------------------|
B|----------0-----------0------------------|
G|------6-----------6-------6--------------|
D|----7---7---7---7---7---7---7------------|
A|--0--------------------------------------|
E|-----------------------------------------|

Acordes para:
    Colaboração e revisão:
    • Vinícius Dias
    • Davi Raimundo

    0 comentários

      mostrar mais comentários

      Conseguiu tocar?

      97tocaram3ainda não

      Grave um vídeo tocando João de Barro e mande pra gente!

      00:00 / 00:00
      outros vídeos desta música
      repetirqualidadeautomática
      Outro vídeos desta música
        00:00 / 00:00
        automática
        Capítulos
        • Início
        • Tocando a música
        • Acordes da Introdução
        • Tocando Introdução
        • Ensinando Dedilhado da Introdução
        • Acordes das Estrofes
        • Tocando Estrofes
        • Ensinando Dedilhado das Estrofes
        • Tocando Repetições com o Ritmo
        • Ensinando Ritmo
        • Encerramento
        OK