Enviar cifraEntrar

Black Dog

Led Zeppelin

Tab de baixo: Principal
exibições 36.712
Intro

G|--------------------------------------------|
D|-9p8-9--------------------------------------|
A|--------------------------------------------|
E|-------0-0----------------------------------|

Primeira parte

Hey, hey, mama said the way you move...

Parte 1

G|-----------5--------------------------------|
D|---5-6-7-----7------------------------------|
A|-7-------7----------------------------------|
E|--------------------------------------------|

Parte 2

G|-7-9-5h7p5-----5----------------------------|
D|-----------7-7---7--------------------------|
A|--------------------------------------------|
E|--------------------------------------------|

Parte 3

G|--------------------------------------------|
D|-5-7-7--------------------------------------|
A|-------5-7-3-5-0----------------------------|
E|-----------------3/5------------------------|

Segunda parte

Oh, oh, child,way you shake that thing... 

Parte 1

G|-----------5--------------------------------|
D|---5-6-7-----7------------------------------|
A|-7-------7----------------------------------|
E|--------------------------------------------|

Parte 2

G|-7-9-5h7p5-----5----------------------------|
D|-----------7-7---7--------------------------|
A|--------------------------------------------|
E|--------------------------------------------|

Parte 3

G|--------------------------------------------|
D|-5-7-7--------------------------------------|
A|-------5-7-3-5-0----------------------------|
E|-----------------3/5------------------------|

Terceira parte

Hey, hey, baby,when you walk that way...

Parte 1

G|-----------5--------------------------------|
D|---5-6-7-----7------------------------------|
A|-7-------7----------------------------------|
E|--------------------------------------------|

Parte 2

G|-7-9-5h7p5-----5----------------------------|
D|-----------7-7---7--------------------------|
A|--------------------------------------------|
E|--------------------------------------------|

Parte 3

G|--------------------------------------------|
D|-5-7-7--------------------------------------|
A|-------5-7-3-5-0----------------------------|
E|-----------------3/5------------------------|

Parte 4

G|--------------------------------------------|
D|-----------5--------------5-----------------|
A|---5-6-7-----7----5-6-7-----7---------------|
E|-7-------7------7-------7-------------------|

Parte 5

G|--------------------------------------------|
D|-----------5--------------------------------|
A|---5-6-7-----7----5-6-7---------------------|
E|-7-------7------7---------------------------|

Parte 6

G|-----------5--------------------------------|
D|---5-6-7-----7------------------------------|
A|-7-------7----------------------------------|
E|--------------------------------------------|

Parte 7

G|-7-9-5h7p5-----5----------------------------|
D|-----------7-7---7--------------------------|
A|--------------------------------------------|
E|--------------------------------------------|

Parte 8

G|--------------------------------------------|
D|-5-7-7--------------------------------------|
A|-------5-7-3-5------------------------------|
E|--------------------------------------------|

Quarta parte

Oh, yeah, oh, yeah,ah, ah, ah 

Parte 1

G|--------------------------------------------|
D|--------------------------------------------|
A|-0-0--------------3-------------------------|
E|------5-5--5-5--5---------------------------|

Parte 2

G|--------------------------------------------|
D|--------------------------------------------|
A|------------------------3--0--3/12----------|
E|-3/5-5--3/5-5--3/5-5--5---------------------|

Quinta parte (igual a 1ºparte)

I gotta roll, can't stand still... 

Parte 1

G|-----------5--------------------------------|
D|---5-6-7-----7------------------------------|
A|-7-------7----------------------------------|
E|--------------------------------------------|

Parte 2

G|-7-9-5h7p5-----5----------------------------|
D|-----------7-7---7--------------------------|
A|--------------------------------------------|
E|--------------------------------------------|

Parte 3

G|--------------------------------------------|
D|-5-7-7--------------------------------------|
A|-------5-7-3-5-0----------------------------|
E|-----------------3/5------------------------|

Sexta parte(Igual a 2ºparte)

Eyes that shine burning red... 

Parte 1

G|-----------5--------------------------------|
D|---5-6-7-----7------------------------------|
A|-7-------7----------------------------------|
E|--------------------------------------------|

Parte 2

G|-7-9-5h7p5-----5----------------------------|
D|-----------7-7---7--------------------------|
A|--------------------------------------------|
E|--------------------------------------------|

Parte 3

G|--------------------------------------------|
D|-5-7-7--------------------------------------|
A|-------5-7-3-5-0----------------------------|
E|-----------------3/5------------------------|

Sétima parte

Hey baby,oh,baby,pretty baby,Tell me what you...

Parte 1

G|--------------------------------------------|
D|--------------------------------------------|
A|------------------3-------------------------|
E|-5-3-3-5-3--5-3-5--5-3\2--------------------|

Parte 2

G|--------------------------------------------|
D|--------------------------------------------|
A|-----------7--5-----------------------------|
E|-5-3-3-5-3----------------------------------|

Parte 3

G|--------------------------------------------|
D|--------------------------------------------|
A|------------------3-------------------------|
E|-5-3-3-5-3--5-3-5--5-3\2--------------------|

Parte 4

G|--------------------------------------------|
D|--------------------------------------------|
A|-----------7--5-----------------------------|
E|-5-3-3-5-3----------------------------------|


Hey baby,oh,baby,pretty baby,Tell me what you...

Parte 5

G|--------------------------------------------|
D|--------------------------------------------|
A|------------------3-------------------------|
E|-5-3-3-5-3--5-3-5--5-3\2--------------------|

Parte 6

G|--------------------------------------------|
D|--------------------------------------------|
A|-----------7--5-----------------------------|
E|-5-3-3-5-3----------------------------------|

Parte 7

G|--------------------------------------------|
D|--------------------------------------------|
A|------------------3-------------------------|
E|-5-3-3-5-3--5-3-5--5-3\2--------------------|

Parte 8

G|--------------------------------------------|
D|--------------------------------------------|
A|-----------7--5-----------------------------|
E|-5-3-3-5-3------5---------------------------|

Oitava parte(Igual a 1ºparte)

Didn't take too long before I found out... 

Parte 1

G|-----------5--------------------------------|
D|---5-6-7-----7------------------------------|
A|-7-------7----------------------------------|
E|--------------------------------------------|

Parte 2

G|-7-9-5h7p5-----5----------------------------|
D|-----------7-7---7--------------------------|
A|--------------------------------------------|
E|--------------------------------------------|

Parte 3

G|--------------------------------------------|
D|-5-7-7--------------------------------------|
A|-------5-7-3-5-0----------------------------|
E|-----------------3/5------------------------|

Nona parte(Igual a 2ºparte)

Spent my money, took my car...

Parte 1

G|-----------5--------------------------------|
D|---5-6-7-----7------------------------------|
A|-7-------7----------------------------------|
E|--------------------------------------------|

Parte 2

G|-7-9-5h7p5-----5----------------------------|
D|-----------7-7---7--------------------------|
A|--------------------------------------------|
E|--------------------------------------------|

Parte 3

G|--------------------------------------------|
D|-5-7-7--------------------------------------|
A|-------5-7-3-5-0----------------------------|
E|-----------------3/5------------------------|

Décima parte(Igual a 3ºparte)

I don't know, but I've been told...

Parte 1

G|-----------5--------------------------------|
D|---5-6-7-----7------------------------------|
A|-7-------7----------------------------------|
E|--------------------------------------------|

Parte 2

G|-7-9-5h7p5-----5----------------------------|
D|-----------7-7---7--------------------------|
A|--------------------------------------------|
E|--------------------------------------------|

Parte 3

G|--------------------------------------------|
D|-5-7-7--------------------------------------|
A|-------5-7-3-5-0----------------------------|
E|-----------------3/5------------------------|

Parte 4

G|--------------------------------------------|
D|-----------5--------------5-----------------|
A|---5-6-7-----7----5-6-7-----7---------------|
E|-7-------7------7-------7-------------------|

Parte 5

G|--------------------------------------------|
D|-----------5--------------------------------|
A|---5-6-7-----7----5-6-7---------------------|
E|-7-------7------7---------------------------|

Parte 6

G|-----------5--------------------------------|
D|---5-6-7-----7------------------------------|
A|-7-------7----------------------------------|
E|--------------------------------------------|

Parte 7

G|-7-9-5h7p5-----5----------------------------|
D|-----------7-7---7--------------------------|
A|--------------------------------------------|
E|--------------------------------------------|

Parte 8

G|--------------------------------------------|
D|-5-7-7--------------------------------------|
A|-------5-7-3-5------------------------------|
E|--------------------------------------------|

Décima primeira parte(igual a 4ºparte)

Oh, yeah, oh, yeah,ah, ah, ah 

Parte 1

G|--------------------------------------------|
D|--------------------------------------------|
A|-0-0--------------3-------------------------|
E|------5-5--5-5--5---------------------------|

Parte 2

G|--------------------------------------------|
D|--------------------------------------------|
A|------------------------3--0--3/12----------|
E|-3/5-5--3/5-5--3/5-5--5---------------------|

Décima segunda parte(Igual a 1ºparte)

All I ask for when I pray,steady rolling woman won't come...

Parte 1

G|-----------5--------------------------------|
D|---5-6-7-----7------------------------------|
A|-7-------7----------------------------------|
E|--------------------------------------------|

Parte 2

G|-7-9-5h7p5-----5----------------------------|
D|-----------7-7---7--------------------------|
A|--------------------------------------------|
E|--------------------------------------------|

Parte 3

G|--------------------------------------------|
D|-5-7-7--------------------------------------|
A|-------5-7-3-5-0----------------------------|
E|-----------------3/5------------------------|

Décima terceira parte(Igual a 2ºparte)

Need a woman gonna hold my hand,Tell me no lies, make... 

Parte 1

G|-----------5--------------------------------|
D|---5-6-7-----7------------------------------|
A|-7-------7----------------------------------|
E|--------------------------------------------|

Parte 2

G|-7-9-5h7p5-----5----------------------------|
D|-----------7-7---7--------------------------|
A|--------------------------------------------|
E|--------------------------------------------|

Parte 3

G|--------------------------------------------|
D|-5-7-7--------------------------------------|
A|-------5-7-3-5-0----------------------------|
E|-----------------3/5------------------------|

Décima quarta parte

Solo de guitarra final/tocar tab 13x

G|--------------------------------------------|
D|--------------------------------------------|
A|------------------3-----------------7--5----|
E|-5-3-3-5-3--5-3-5--5-3\2--5-3-3-5-3---------|

Décima quarta parte,opção com levadas 

Parte 1 tocar tab 2x

G|--------------------------------------------|
D|--------------------------------------------|
A|------------------3-----------------7--5----|
E|-5-3-3-5-3--5-3-5--5-3\2--5-3-3-5-3---------|

Parte 2

G|--------------------------------------------|
D|--------------------------------------------|
A|------------------3-------------------------|
E|-5-3-3-5-3--5-3-5--5-3\2--5-3-3-5-3--0-2----|

Parte 3

G|--------------------------------------------|
D|--------------------------------------------|
A|------------------3-------------------------|
E|-5-3-3-5-3--5-3-5--5-3\2--5-3-3-5-3---------|

G|--------------------------------------------|
D|------9-------------------------------------|
A|-5/7----7-5---------------------------------|
E|--------------------------------------------|

Parte 4 

G|--------------------------------------------|
D|--------------------------------------------|
A|------------------3-------------------------|
E|-5-3-3-5-3--5-3-5--5-3\2--5-3-3-5-3---------|

G|--------------------------------------------|
D|--------------------------------------------|
A|-7-6-5--------------------------------------|
E|--------------------------------------------|

Parte 5

G|--------------------------------------------|
D|--------------------------------------------|
A|------------------3-------------------------|
E|-5-3-3-5-3--5-3-5--5-3\2--5-3-3-5-3---------|

G|--------------------------------------------|
D|--------------------------------------------|
A|-7-5--3-------------------------------------|
E|--------------------------------------------|

Parte 6

G|--------------------------------------------|
D|--------------------------------------------|
A|------------------3-------------------------|
E|-5-3-3-5-3--5-3-5--5-3\2--5-3-3-5-3--0-2----|

Parte 7

G|--------------------------------------------|
D|--------------------------------------------|
A|------------------3-------------------------|
E|-5-3-3-5-3--5-3-5--5-3\2--5-3-3-5-3---------|

G|--------------------------------------------|
D|----7---------------------------------------|
A|----5---------------------------------------|
E|-0------------------------------------------|

Parte 8

G|--------------------------------------------|
D|--------------------------------------------|
A|------------------3-------------------------|
E|-5-3-3-5-3--5-3-5--5-3\2--5-3-3-5-3---------|

G|--------------------------------------------|
D|-9--7---------------------------------------|
A|-7--5---------------------------------------|
E|--------------------------------------------|

Parte 9 tocar tab 3x

G|--------------------------------------------|
D|--------------------------------------------|
A|------------------3-----------------7--5----|
E|-5-3-3-5-3--5-3-5--5-3\2--5-3-3-5-3---------|

Parte 10

G|--------------------------------------------|
D|--------------------------------------------|
A|------------------3-------------------------|
E|-5-3-3-5-3--5-3-5--5-3\2--5-3-3-5-3---------|

G|--------------------------------------------|
D|-9--7---------------------------------------|
A|-7—-5--0--3/12------------------------------|
E|--------------------------------------------|
  • 1
  • 2
  • 3
  • 4
  • 5
  • 6
  • 7
  • 8
  • 9
  • 10
  • 11
  • 12
    Composição: Jimmy Page / John Paul Jones / Robert PlantColaboração e revisão:
    • Reginaldo
    • ultimatebass

    0 comentários

      mostrar mais comentários

      Conseguiu tocar?

      7tocaram0ainda não

      Grave um vídeo tocando Black Dog e mande pra gente!

      00:00 / 00:00
      outros vídeos desta música
      repetirqualidadeautomática
      • automática
      Outro vídeos desta música
        Capítulos
        • Início
        • Tocando a música
        • Dicas iniciais
        • Tocando Introdução
        • Ensinando Introdução
        • Tocando Primeira Parte
        • Ensinando Primeira Parte
        • Tocando Segunda e Terceira Parte
        • Ensinando Terceira Parte
        • Tocando Quarta Parte
        • Ensinando Quarta Parte
        • Tocando Sexta e Sétima Parte
        • Ensinando Sétima Parte
        • Dicas trecho Décima a Décima Terceira Parte
        • Tocando Décima Terceira e Décima Quarta Parte
        • Ensinando Décima Quarta Parte
        • Linha alternativa - Décima Quarta Parte
        • Ensinando linha alternativa
        • Encerramento
        00:00 / 00:00
        automática
        • automática
        Acordes para:violão e guitarra
        dificuldadeexibiçõescontribuições
        1 versão de Tab de baixoexibiçõescontribuições
        1 versão de Tab de bateriaexibiçõescontribuições
        2 versões de Tab de gaitaexibiçõescontribuições
        fecharplay/pause subir/descer velocidade
        fechar
        OK
        Feedback