Cifra Club

Aprenda

Lonely Way

Ledbetter

Cifra: Tab (violão e guitarra)
Já pensou em usar uma coleção de roupas do Cifra Club? Responda as perguntas abaixo e nos ajude nessa missão! →
tom: D
Intro Riff: (2x)

E|------------------------------------------------------------|
B|------------------------------------------------------------|
G|------------------------------------------------------------|
D|-----------------7-7-7-7-7-7--------------------------------|
A|--7-7-7-7-7-7-10--------------------------------------------|
E|------------------------------------------------------------|

E|------------------------------------------------------------|
B|------------------------------------------------------------|
G|------------------------------------------------------------|
D|-----------------7-7-7-7-7-7--------------------------------|
A|--7-7-7-7-7-7-10--------------------------------------------|
E|------------------------------------------------------------|

Parte Principal: Aparece no tempo inteiro da música e no refrão

E|-------------------------------------------------------------|
B|-------------------------------------------------------------|
G|-----0-2-----------------------------------------------------|
D|---2-0-2-----------------------------------------------------|
A|---2---------------------------------------------------------|
E|-------------------------------------------------------------|

Solo 1: (4X)

E|--12-12-12-15-12---------------------------------------------|
B|--------------------------12---------------------------------|
G|--------------------12-14----14-12---------------------------|
D|-----------------14----------------14------------------------|
A|-------------------------------------------------------------|
E|-------------------------------------------------------------|

Solo 2: (4X)

E|-------------------------------------------------------------|
B|-------------------------------------------------------------|
G|--9-9-7------------------------------------------------------|
D|--------5-7------7-9-7---------------------------------------|
A|------------7-10-------10-7----------------------------------|
E|-------------------------------------------------------------|

Parte Principal: Aparece no tempo inteiro da música e no refrão

E|-------------------------------------------------------------|
B|-------------------------------------------------------------|
G|-----0-2-----------------------------------------------------|
D|---2-0-2-----------------------------------------------------|
A|---2---------------------------------------------------------|
E|-------------------------------------------------------------|

E|-------------------------------------------------------------|
B|-------------------------------------------------------------|
G|--10-12-10-12-14-12-10---------------------------------------|
D|--10-12-10-12-14-12-10---------------------------------------|
A|--7--10-7--10-12-10-7----------------------------------------|
E|-------------------------------------------------------------|
Composição de Banda Ledbetter
Colaboração e revisão:
  • Guilherme Santos
3 exibições
    • ½ Tom
    • A
    • Bb
    • B
    • C
    • Db
    • D
    • Eb
    • E
    • F
    • F#
    • G
    • Ab
  • Adicionar à lista

    0 comentários

    Ver todos os comentários

    Conseguiu tocar?

    0 Tocaram 0 Ainda não

    Grave um vídeo tocando Lonely Way e nos envie!

    00:00 / 00:00
    Outros vídeos desta música
    Repetir Qualidade Automático
    Outros vídeos desta música
    00:00 / 00:00
    Automático

    Cifra Club Pro

    Aproveite o Cifra Club com benefícios exclusivos e sem anúncios
    Cifra Club Pro
    Aproveite o Cifra Club com benefícios exclusivos e sem anúncios
    OK