Cifra Club

Aprenda

Paciência

Lenine

Cifra: Principal (violão e guitarra)
tom: G
[Intro] G5(7M)  G5(6)  G5  Em7(9)   
        Em7  C4+(9)  C9  C2(9)  G5
        G5(7M)  G5(6)  G5  Em7(9)   
        Em7  C4+(9)  C9  C2(9)  G5

   G5(7M)          G5(6)   G5
E|------------------------------------------|
B|-----3-----3---------3-----3--------------|
G|-------0-----0---------0-----0------------|
D|---4-----4-----4---2-----0-----0----------|
A|------------------------------------------|
E|-3---------------3------------------------|

   Em7(9)          Em7
E|------------------------------------------|
B|-----3-----3---------3-----3--------------|
G|-------0-----0---------0-----0------------|
D|---4-----4-----4---2-----0-----0----------|
A|------------------------------------------|
E|-0---------------0------------------------|

   C4+(9)          C9      C2(9)
E|------------------------------------------|
B|-----3-----3---------3-----3--------------|
G|-------0-----0---------0-----0------------|
D|---4-----4-----4---2-----0-----0----------|
A|-3---------------3------------------------|
E|------------------------------------------|

   G5
E|------------------------------------------|
B|-----3-----3---------3-----3--------------|
G|-------0-----0---------0-----0------------|
D|---0-----0-----0---0-----0-----0----------|
A|------------------------------------------|
E|-3---------------3------------------------|

[Primeira Parte]

G5(7M)               G5(6)         G5           Em7(9)
  Mesmo quando tudo pede um pouco mais de calma
                    Em7                       C4+(9)   
Até quando o corpo pede um pouco mais de alma
C9    C2(9)    G5
   A vida não para

G5(7M)                 G5(6)        G5   Em7(9)
  Enquanto o tempo acelera e pede pressa
                   Em7              C4+(9)  C9
Eu me recuso faço hora vou na valsa
   C2(9)    G5
A vida tão rara

G5(7M)                  G5(6)       G5    Em7(9)
 Enquanto todo mundo espera a cura do mal
                      Em7                C4+(9)
E a loucura finge que isso tudo é normal
    C9        C2(9)  G5
Eu finjo ter paciência

G5(7M)                G5(6)           G5  Em7(9)
 O mundo vai girando cada vez mais veloz
                   Em7                           C4+(9)
A gente espera do mundo   e o mundo espera de nós
    C9            C2(9)  G5
Um pouco mais de paciência

[Segunda Parte]

   F7M(9)
E|------------------------------------------|
B|------------------------------------------|
G|-----0-----0---------0-----0--------------|
D|-------2-----2---------2-----2------------|
A|---0-----0-----0---0-----0-----0----------|
E|-1---------------1------------------------|

   Em7(11)
E|------------------------------------------|
B|-----3-----3---------3-----3--------------|
G|-------2-----2---------2-----2------------|
D|---5-----5-----5---5-----5-----5----------|
A|------------------------------------------|
E|-0---------------0------------------------|

   C9           Am7(9) 
E|------------------------------------------|
B|-----3--------0---------------------------|
G|-------0------5---------------------------|
D|---2-----2----5---------------------------|
A|-3---------2--0---------------------------|
E|------------------------------------------|

   Em7(11)
E|------------------------------------------|
B|-----3-----3---------3-----3--------------|
G|-------0-----0---------0-----0------------|
D|---4-----4-----4---4-----4-----4----------|
A|------------------------------------------|
E|-0---------------0------------------------|

[Variação]
   C9           A7(4) 
E|------------------------------------------|
B|-----3--------3---------------------------|
G|-------0------0---------------------------|
D|---2-----2----2---------------------------|
A|-3---------2--0---------------------------|
E|------------------------------------------|

F7M(9)
      Será que é o tempo que lhe falta pra perceber
Em7(11)
        Será que temos esse tempo pra perder
C9                   Am7(9)
   E quem quer saber
              Em7(9)
A vida é tão rara tão rara

F7M(9)
      Mesmo quando tudo pede um pouco mais de calma
Em7(11)
       Até quando o corpo pede um pouco mais de alma
C9      A7(4)              Em7(9)
  Eu sei,    a vida é tão rara
            G5(7M)   
A vida não para não        

( G5(6)  G5  Em7(9)  Em7 )
( C4+(9)  C9  C2(9)  G5 )

[Segunda Parte]

F7M(9)
      Será que é o tempo que lhe falta pra perceber
Em7(11)
        Será que temos esse tempo pra perder
C9                   Am7(9)
   E quem quer saber
              Em7(9)
A vida é tão rara tão rara

F7M(9)
      Mesmo quando tudo pede um pouco mais de calma
Em7(11)
       Até quando o corpo pede um pouco mais de alma
C9      A7(4)              Em7(9)
  Eu sei,    a vida é tão rara
            G5(7M)   
A vida não para não    

( G5(6)  G5  Em7(9)  Em7 )
( C4+(9)  C9  C2(9)  G5 )
( G5(6)  G5  Em7(9)  Em7 )
( C4+(9)  C9  C2(9)  G5 )
    
              G5(7M)
A vida é tão rara
Composição de Dudu Falcão / Lenine
1.021.310 exibições
    • ½ Tom
    • A
    • Bb
    • B
    • C
    • Db
    • D
    • Eb
    • E
    • F
    • F#
    • G
    • Ab
  • Adicionar à lista

    0 comentários

    Ver todos os comentários

    Conseguiu tocar?

    93 Tocaram 17 Ainda não

    Grave um vídeo tocando Paciência e nos envie!

    00:00 / 00:00
    outros vídeos desta música
    repetir qualidade Automático
    Outros vídeos desta música
    00:00 / 00:00
    Automático
    Capítulos
    • Início
    • Acordes da introdução
    • Tocando a introdução
    • Ensinando o dedilhado da música
    • Acordes e ritmo da primeira parte
    • Tocando a primeira parte
    • Acordes da segunda parte
    • Tocando a segunda parte
    • Ensinando o dedilhado da segunda parte
    • Dicas
    • Tocando trecho da música
    • Encerramento

    Cifra Club Pro

    Aproveite o Cifra Club com benefícios exclusivos e sem anúncios
    Cifra Club Pro
    Aproveite o Cifra Club com benefícios exclusivos e sem anúncios
    OK