Cifra Club

Aprenda

Again

Lenny Kravitz

Cifra: Principal (violão e guitarra)
Tom: D
        A                F#m                  E              D9
E|---------0----------------0------------------0--------0~-------0/2-------|
B|-----------0/2-0------------0/2-0/2------------0/2-0--3~-----------0/2-0-|
G|-----2----------------2------------------2------------2~---2-------------|
D|---2---2------------2---2--------------2---2----------0~-0---0-----------|
A|-0-----------------------------------------------------------------------|
E|------------------0------------------2-----------------------------------|

D9                  E    F#
I've been searching for you
D9                E      F#
I heard a cry within my soul
D9                                     E    F#
I've never had a yearning quite like this before
D9                                 E    F#
Now here you are walking right through my door

Refrão:

A9add          F#m
    All of my life
               E
Where have you been
            D
I wonder if I'll ever see you again
 A
And if that day comes
F#m
I know we could win
Em             D
I wonder if I'll ever see you again

D9              E    F#
A sacred gift of heaven
D9                  E    F#
For better, worse, wherever
   D9                          E          F#
And I would never let somebody break you down
D9                 E F#
Or take your crown never

 Refrão:

E|-------------------------------------12^-12-10-9-10-12-|
B|-//5-5-5-5-5-/12^-12^-12^-12^--10-10-------------------|
G|-------------------------------------------------------|
D|-------------------------------------------------------|
A|-------------------------------------------------------|
E|-------------------------------------------------------|

E|--------------------------------------------------------|
B|12^12-10/12/10/12/10/12----------------14-15-15/17-17^17|
G|---------------------------------14-16------------------|
D|------------------------12/14-16------------------------|
A|--------------------------------------------------------|
E|--------------------------------------------------------|

e|17^17-19^-19-17-19-17-19^-19^-19^^-19-17-19-17-|
B|-----------------------------------------------|
G|-----------------------------------------------|
D|-----------------------------------------------|
A|-----------------------------------------------|
E|-----------------------------------------------|

F
I've searched through time, I've always known
     Em
That you were there upon your throne
  F
A lonely queen without her king
     Em
I've longed for you, my love forever

Solo: A  F#m  E  D

(Refrão)
                  
( A  F#m  E  D )

Fade Out

( A  F#m  F )
Composição de Lenny Kravitz 169.591 exibições
    • ½ Tom
    • A
    • Bb
    • B
    • C
    • Db
    • D
    • Eb
    • E
    • F
    • F#
    • G
    • Ab
  • Adicionar à lista

    0 comentários

    Mostrar mais comentários

    Conseguiu tocar?

    15 Tocaram 0 Ainda não

    Grave um vídeo tocando Again e mande pra gente!

    00:00 / 00:00
    outros vídeos desta música
    repetir qualidade Automático
    Outros vídeos desta música
    00:00 / 00:00
    Automático
    OK