Cifra Club

Oi

Léo Magalhães

Cifra: Principal (violão e guitarra)
Tom: G
[Intro]

E|--7-7-7---------7-------------|
B|--------10-8-10---10-8--------|
G|-----------------------7-9----|
D|------------------------------|
A|------------------------------|
E|------------------------------|

E|--10-10-10----------------------------------|
B|--12-12-12---13-12-13-15-13-12-13-12--10-8--|
G|-------------14-12-14-16-14-12-14-12--11-9--|
D|--------------------------------------------|
A|--------------------------------------------|
E|--------------------------------------------|

G                                 C
Entre ser só seu amigo e não ser nada
             G
Prefiro ser nada
                                C
Onde é que eu vou guardar esse amor
Que eu tenho aqui
    G
Me fala

                               C
Como é que eu vou pegar na sua mão
                         G
E não poder te levar pra casa
                             C
Ficar tão perto assim da sua boca
                Em
E não poder beijá-la

   G     D/F#           C
E se um dia você me chamar
                            G
Pra conversar debaixo de uma árvore
                          D               Em
E me contar que se apaixonou por alguém
        D    C
É esse dia aí
                 G                             D
Justamente esse dia eu não quero que aconteça
                       D
Então só amizade esqueça

    G                         D
E toda vez que você me disser oi
                    Em
Eu vou responder só oi
                            C9  C
Com o meu peito gritando te amo

    G                         D
E toda vez que você me disser oi
                    Em
Eu vou responder só oi
                            C9  C
Com o meu peito gritando te amo

( G  D  Em  C )

E|-------------------7-----------------------|
B|---------------8-----8-----10-10-10--7-----|
G|--------7-9-11---------7----------------7--|
D|-7-9-10------------------------------------|
A|-------------------------------------------|
E|-------------------------------------------|

E|-------------------------------------------|
B|-8-8-7-7---------8-8-7-7-------------------|
G|---------9-9-7-7---------9-9-7-7-7h9-------|
D|-------------------------------------------|
A|-------------------------------------------|
E|-------------------------------------------|

E|-8-7h8p7------------|
B|----------10-8------|
G|----------------9---|
D|--------------------|
A|--------------------|
E|--------------------|

   G     D/F#           C
E se um dia você me chamar
                            G
Pra conversar debaixo de uma árvore
                          D               Em
E me contar que se apaixonou por alguém
        D    C
É esse dia aí
                 G                             D
Justamente esse dia eu não quero que aconteça
                       D
Então só amizade esqueça

    G                         D
E toda vez que você me disser oi
                    Em
Eu vou responder só oi
                            C9  C
Com o meu peito gritando te amo

    G                         D
E toda vez que você me disser oi
                    Em
Eu vou responder só oi
                            C9  C
Com o meu peito gritando te amo

[Final]

E|-7---------------------|
B|---8----10-7-----8-7---|
G|-----7-------7-------9-|
D|-----------------------|
A|-----------------------|
E|-----------------------|
exibições 217.128
Acordes para:

    0 comentários

    mostrar mais comentários

    Conseguiu tocar?

    27 tocaram 7 ainda não

    Grave um vídeo tocando Oi e mande pra gente!

    00:00 / 00:00
    outros vídeos desta música
    repetir qualidade Automático
    Outros vídeos desta música
    00:00 / 00:00
    Automático
    OK