Cifra Club

Fotografia

Leoni

Cifra: Principal (violão e guitarra)
tom: B
Intro 4x: B  B7M  B6  B7M
   B        B7M
E|-----------------------------------------
B|-4---------------------------------------
G|-4--4--4--3--3--3--3---------------------
D|-4--4--4--4--4--4--4---------------------
A|-2--------2-----------2-----------------
E|-----------------------------------------
   B6       B7M
E|-----------------------------------------
B|-4---------------------------------------
G|-1--1--1--3--3--3--3---------------------
D|-4--4--4--4--4--4--4---------------------
A|-2--------2-----------2------------------
E|-----------------------------------------


Primeira Parte:

B      B7M             B6      B7M
  Hoje o mar faz onda feito criança
B     B7M             B6       B7M
  No balanço calmo a gente descansa
C#m     C#m7            C#m7(13)    C#m7
    Nessas horas dorme longe a lembrança
    B     B7M  B6  B7M
De ser feliz

B        B7M             B6         B7M
  Quando a tarde toma a gente nos braços
B       B7M              B6         B7M
  Sopra um vento que dissolve o cansaço
C#m     C#m7         C#m7(13)     C#m7
    É o avesso do esforço que eu faço
 B     B7M  B6  B7M
Pra ser feliz
   B        B7M
E|-----------------------------------------
B|-4---------------------------------------
G|-4--4--4--3--3--3--3---------------------
D|-4--4--4--4--4--4--4---------------------
A|-2--------2-----------2------------------
E|-----------------------------------------
   B6       B7M
E|-----------------------------------------
B|-4---------------------------------------
G|-1--1--1--3--3--3--3---------------------
D|-4--4--4--4--4--4--4---------------------
A|-2--------2-----------2------------------
E|-----------------------------------------
   B        B7M
E|-----------------------------------------
B|-4---------------------------------------
G|-4--4--4--3--3--3--3---------------------
D|-4--4--4--4--4--4--4---------------------
A|-2--------2-----------2------------------
E|-----------------------------------------
   B6       B7M
E|-----------------------------------------
B|-4---------------------------------------
G|-1--1--1--3--3--3--3---------------------
D|-4--4--4--4--4--4--4---------------------
A|-2--------2-----------2------------------
E|-----------------------------------------
   C#m      C#m7
E|-----------------------------------------
B|-5---------------------------------------
G|-6--6--6--4--4--4--4---------------------
D|-6--6--6--6--6--6--6---------------------
A|-4--------4-----------4------------------
E|-----------------------------------------
   C#m7(13) C#m7
E|-----------------------------------------
B|-----------------------------------------
G|-3--3--3--4--4--4--4---------------------
D|-6--6--6--6--6--6--6---------------------
A|-4--------4-----------4------------------
E|-----------------------------------------
   B        B7M
E|-----------------------------------------
B|-4---------------------------------------
G|-4--4--4--3--3--3--3---------------------
D|-4--4--4--4--4--4--4---------------------
A|-2--------2-----------2------------------
E|-----------------------------------------
   B6       B7M
E|-----------------------------------------
B|-4---------------------------------------
G|-1--1--1--3--3--3--3---------------------
D|-4--4--4--4--4--4--4---------------------
A|-2--------2-----------2------------------
E|-----------------------------------------


Segunda Parte:

E                     F#7(11)
  O que vai ficar na fotografia
E/G#                   F#/A#
     São os laços invisíveis que havia
   E
E|-----------------------------------------
B|-----------------------------------------
G|-1--1--1--1--1--1--1--1------------------
D|-2--2--2--2--2--2--2--2------------------
A|-2--2--2--2--2--2--2--2------------------
E|-0--------0--------0---------------------
   F#7(11)
E|-----------------------------------------
B|-----------------------------------------
G|-3--3--3--3--3--3--3--3------------------
D|-4--4--4--4--4--4--4--4------------------
A|-4--4--4--4--4--4--4--4------------------
E|-2---------2--------2--------------------
   E/G#
E|-----------------------------------------
B|-----------------------------------------
G|-1--1--1--1--1--1--1--1------------------
D|-2--2--2--2--2--2--2--2------------------
A|-X--X--X--X--X--X--X--X------------------
E|-4--------4--------4---------------------
   F#/A#
E|-----------------------------------------
B|-----------------------------------------
G|-3--3--3--3--3--3--3--3------------------
D|-4--4--4--4--4--4--4--4------------------
A|-X--X--X--X--X--X--X--4------------------
E|-6--------6--------6---------------------


Refrão:

B4     F#4(7)   E      F#7(11)
   As cores, figuras, motivos
B4    F#4(7)       E       F#7(11)
   O sol passando sobre os amigos
B4     F#4(7)    E      F#7(11)
   Histórias, bebidas, sorrisos
                    E   F#4(7)  F#7(11)
E afeto em frente ao mar.

Intro: B  B7M  B6  B7M

Primeira Parte com variação na letra:

B        B7M             B6          B7M
  Quando as sombras vão ficando compridas
B          B7M          B6           B7M
  Enchendo a casa de silêncio e preguiça
C#m     C#m7            C#m7(13)   C#m7
    Nessas horas é que Deus deixa pistas
B     B7M       B6  B7M
  Pra eu ser feliz
B          B7M           B6           B7M
  E quando o dia não passar de um retrato
B    B7M           B6          B7M
  Colorindo de saudade o meu quarto
C#m    C#m7           C#m7(13)  C#m7
    Só aí vou ter certeza de   fato
B     B7M       B6  B7M
  Que eu fui feliz

Segunda Parte:

E                     F#7(11)
  O que vai ficar na fotografia
E/G#                   F#/A#
     São os laços invisíveis que havia

Refrão:

B4     F#4(7)   E      F#7(11)
   As cores, figuras, motivos
B4    F#4(7)       E       F#7(11)
   O sol passando sobre os amigos
B4     F#4(7)    E      F#7(11)
   Histórias, bebidas, sorrisos
                    E   F#4(7)  F#7(11)
E afeto em frente ao mar.

Refrão com variação:

B4     F#4(7)   E      F#7(11)
   As cores, figuras, motivos
B4    F#4(7)       E       F#7(11)
   O sol passando sobre os amigos
B4     F#4(7)    E      F#7(11)
   Histórias, bebidas, sorrisos
                    G#m7  G#m7(9)  G#m7  G#m7(9)
E afeto em frente ao mar.

( G#m7  G#m7(9)  G#m7  G#m7(9) )
   G#m7     G#m7(9)
E|-----------------------------------------
B|-----------------------------------------
G|-4--4--4--3--3--3--3---------------------
D|-4--4--4--4--4--4--4---------------------
A|-----------------------------------------
E|-4--------4-----------4------------------
   G#m7     G#m7(9)
E|-----------------------------------------
B|-----------------------------------------
G|-1--1--1--3--3--3--3---------------------
D|-4--4--4--4--4--4--4---------------------
A|-----------------------------------------
E|-4--------4-----------4------------------
00:00 / 00:00
Outros vídeos desta música
Repetir
Outros vídeos desta música
Composição de Leo Jaime / Leoni
Colaboração e revisão:
  • Daniel Lopes
  • Paulo Andraus
  • Saul Santos
242.186 exibições
    • ½ Tom
    • A
    • Bb
    • B
    • C
    • Db
    • D
    • Eb
    • E
    • F
    • F#
    • G
    • Ab
  • Adicionar à lista

    0 comentários

    Ver todos os comentários

    Entre para oCifra Club PRO

    Tenha acesso a benefícios exclusivos no App e no Site

    • Chega de anúncios

    • Prioridade de compra em lançamentos

    • Mais recursos no app do Afinador

    • Atendimento Prioritário

    • Descontos nos produtos Cifra Club

    • Ajude a produzir mais conteúdo

    00:00 / 00:00
    Capítulos
    • Início
    • Tocando a música
    • Acordes da Introdução e Primeira Parte
    • Tocando Introdução e Primeira Parte
    • Ensinando Introdução
    • Ensinando Primeira Parte
    • Acordes da Segunda Parte
    • Tocando Segunda Parte
    • Ensinando Segunda Parte
    • Acordes do Refrão
    • Tocando Refrão
    • Ensinando Ritmo do Refrão
    • Acordes do Final da música
    • Tocando Repetições
    • Ensinando Final
    • Encerramento

    Cifra Club Pro

    Aproveite o Cifra Club com benefícios exclusivos e sem anúncios
    Cifra Club Pro
    Aproveite o Cifra Club com benefícios exclusivos e sem anúncios
    OK