Cifra Club

Incapacidade de Amar

Leoni

Cifra: Principal (violão e guitarra)
Selo Cifra Club: esta cifra foi revisada para atender aos critérios oficiais da nossa Equipe de Qualidade.
tom: F
[Intro] 

[Parte 1 de 2]

   Am7(9)           Gm6  
E|-0---0-----0------------------------------|
B|-0-----0-----0------3-----3---------------|
G|-5-------5-----5------3-----3-------------|
D|-5----------------------2-----2-----------|
A|-0----------------------------------------|
E|------------------3-----------------------|

   G9/A A2/B         G#m9/Bb
E|-3/5--5-----5--------4-----4-----4--------|
B|-0------0-----0--------0-----0------------|
G|-2/4------4-----4--3-----3-----3----------|
D|------------------------------------------|
A|------------------------------------------|
E|------------------------------------------|

   Am7(9)           Gm6
E|-0---0-----0------------------------------|
B|-0-----0-----0------3-----3---------------|
G|-5-------5-----5------3-----3-------------|
D|-5----------------------2-----2-----------|
A|-0----------------------------------------|
E|------------------3-----------------------|

   G9/A A2/B         G#m9/Bb
E|-3/5--5-----5--------4-----4-----4--4-----|
B|-0------0-----0--------0-----0------0-----|
G|-2/4------4-----4--3-----3-----3----3-----|
D|------------------------------------------|
A|------------------------------------------|
E|------------------------------------------|

[Parte 2 de 2]

( Am  C9  F7  E7 )
( Am  C9  F  E7 )

(Passagem)

   E7
E|-0--0------0------0--0-----0--------------|
B|-3----3------3----3----3------------------|
G|-1------1------1--1------1----------------|
D|-0----------------0-----------------------|
A|-2----------------2-----------------------|
E|-0----------------0-----------------------|

[Primeira Parte]

Am7        Dm7    G       C9
Vai embora não    fica mais 
                              F
Homem nenhum no mundo vai te dar tanto 
   E7
carinho não
Am7        Dm7           G             C9
Homem nenhum    nem mulher nem pai nem mãe
                   F           E7
Homem nenhum vai aturar tua loucura 
Am         C9            F           E7
A tua cabeça dura que só eu sei tem cura
Am               C9          
Só eu mesmo pra desculpar 

  F               E7        Am    C9
Por tanta incapacidade de ama_____aar 
  F                E7         
Por tanta incapacidade de amar 
  
(Passagem)

   E7
E|-0--0------0------0--0-----0--------------|
B|-3----3------3----3----3------------------|
G|-1------1------1--1------1----------------|
D|-0----------------0-----------------------|
A|-2----------------2-----------------------|
E|-0----------------0-----------------------|

[Segunda Parte]

Am7          Dm7     G       C9
Pra mim e pra você  pensa bem 
                             F
Homem nenhum no mundo vai ter tanta 
     E7
paciência não
Am7         Dm7               G           C9
Homem nenhum    nem mulher nem pai nem mãe
                     F          E7
Nem a ciência vê se entende para e senta 
Am          C9      F          E7
Outra pessoa pode tirar você do pode ir 
Am               C9          
Só eu mesmo pra desculpar 

  F               E7        Am    C9
Por tanta incapacidade de ama_____aar 
  F               E7          Am7(9)          
Por tanta incapacidade de amar 

(Passagem)

 E7                               
E|-0--0------0------0--0-----0--------------|
B|-3----3------3----3----3------------------|
G|-1------1------1--1------1----------------|
D|-0----------------0-----------------------|
A|-2----------------2-----------------------|
E|-0----------------0-----------------------|
00:00 / 00:00
Outros vídeos desta música
Repetir
Outros vídeos desta música
160 exibições
    • ½ Tom
    • A
    • Bb
    • B
    • C
    • Db
    • D
    • Eb
    • E
    • F
    • F#
    • G
    • Ab
  • Adicionar à lista

Afinação da cifra

Afinador online

    0 comentários

    Ver todos os comentários

    Entre para o Cifra Club PRO

    Tenha acesso a benefícios exclusivos no App e no Site

    • Chega de anúncios

    • Mais recursos no app do Afinador

    • Atendimento Prioritário

    • Aumente seu limite de lista

    • Ajude a produzir mais conteúdo

    00:00 / 00:00

    Cifra Club Pro

    Aproveite o Cifra Club com benefícios exclusivos e sem anúncios
    Cifra Club Pro
    Aproveite o Cifra Club com benefícios exclusivos e sem anúncios
    OK