Cifra Club

Aprenda

Amoruim

Letrux

Cifra: Principal (violão e guitarra)
tom: G
   Am
E|-------------------------------------------------------|
B|-------------------------------------------------------|
G|----5----5--------5----5--------5----5--------5----5---|
D|----5----5--------5----5--------5----5--------5----5---|
A|-0----0----0-------------------------------------------|
E|---------------6----6----6---5----5----5---4----4----4-|

   Bm
E|-------------------------------------------------------|
B|-------------------------------------------------------|
G|----7----7--------7----7--------7----7--------7----7---|
D|----7----7--------7----7--------7----7--------7----7---|
A|-0----0----0-------------------------------------------|
E|---------------8----8----8---7----7----7---6----6----6-|

  Am
Existe amor depois do amor
Resiste o amor depois do horror
Até o amor ser bom ele é tão ruim
Tão ruim
Até o amor ser bom ele é tão ruim
Tão ruim
Teu corpo aqui do meu lado
Maior que o meu cobertor
Não é um monstro que eu acho

  Bm
É salvador
É meu salvador
Salvador
É meu salvador

  Am
Existe amor depois do amor
Resiste o amor depois do horror
Até o amor ser bom ele é tão ruim
Tão ruim
Até o amor ser bom ele é tão ruim
Tão ruim
Teu corpo aqui do meu lado
Maior que o meu cobertor
Não é um monstro que eu acho

  Bm
É salvador
É meu salvador
Salvador
É meu salvador

Bm
Até o amor ser bom ele é tão ruim
Tão ruim
Até o amor ser bom ele é tão ruim
Tão ruim
Até o amor ser bom ele é tão
Ele é tão
Composição de Letícia Novaes
Colaboração e revisão:
  • Gabriel Rodrigues
217 exibições
    • ½ Tom
    • A
    • Bb
    • B
    • C
    • Db
    • D
    • Eb
    • E
    • F
    • F#
    • G
    • Ab
  • Adicionar à lista

    0 comentários

    Ver todos os comentários

    Conseguiu tocar?

    1 Tocaram 0 Ainda não

    Grave um vídeo tocando Amoruim e nos envie!

    00:00 / 00:00
    outros vídeos desta música
    repetir qualidade Automático
    Outros vídeos desta música
    00:00 / 00:00
    Automático

    Cifra Club Pro

    Aproveite o Cifra Club com benefícios exclusivos e sem anúncios
    Cifra Club Pro
    Aproveite o Cifra Club com benefícios exclusivos e sem anúncios
    OK