Cifra Club

Someone You Loved

Lewis Capaldi

Cifra: Simplificada (violão e guitarra)
tom: A
[Intro] C  G  Am  F

[TAB - Dedilhado Padrão]

[Parte 1 De 2]
   C                 G
E|------------------------------------------|
B|-1---1---1---1-----0---0---0---0----------|
G|-0---0---0---0-----0---0---0---0----------|
D|-2---2---2---2-----0---0---0---0----------|
A|-3-3---3---3---3--------------------------|
E|-------------------3-3---3---3---3--------|

Parte 2 de 2
   Am                F
E|------------------------------------------|
B|-1---1---1---1-----1---1---1---1----------|
G|-2---2---2---2-----2---2---2---2----------|
D|-2---2---2---2-----3---3---3---3----------|
A|-0-0---0---0---0--------------------------|
E|-------------------1-1---1---1---1--------|

[Primeira Parte]

C                           G
  I'm going under and this time 
                          Am   F
I fear there's no one to save me
C                             G
  This all or nothing really got a way 
                Am  F
Of driving me crazy

[Pré-Refrão]

                    C
I need somebody to heal
              G
Somebody to know
             Am                F
Somebody to have, somebody to hold
              C
It's easy to say, 
                    G
But it's never the same
                 Am
I guess I kinda liked the way 
                    F
You numbed all the pain

[Refrão]

              C               G
Now the day bleeds into nightfall
                Am
And you're not here 
                     F
To get me through it all
                C
I let my guard down 
                         G
And then you pulled the rug
      
I was getting kinda 
Am                         F
Used to being someone you loved

[Segunda Parte]

C                           G
  I'm going under and this time 
                          Am   F
I fear there's no one to turn to

C                             G
  This all or nothing way of loving 
                    Am      F
Got me sleeping without you

[Pré-Refrão]

                          C
Now, I need somebody to know
             G
Somebody to heal
             Am
Somebody to have
                     F
Just to know how it feels
              C
It's easy to say 
                    G
But it's never the same
                 Am       
I guess I kinda liked the way 
                 F
You helped me escape

[Refrão]

              C               G
Now the day bleeds into nightfall
                Am
And you're not here 
                     F
To get me through it all
                C
I let my guard down 
                         G
And then you pulled the rug
     
I was getting kinda 
Am                         F
Used to being someone you loved

[Terceira Parte]

[TAB - Terceira Parte]


[Parte 1 De 4]
   Dm                Am    
E|-1---1---1---1----------------------------|
B|-3---3---3---3-----1---1---1---1----------|
G|-2---2---2---2-----2---2---2---2----------|
D|-0-0---0---0---0---2---2---2---2----------|
A|-------------------0-0---0---0---0--------|
E|------------------------------------------|

Parte 2 de 4
   G                          Am
E|------------------------------------------|
B|-0---0---0---0----0---0-----1----1--------|
G|-0---0---0---0----0---0-----2----2--------|
D|-0---0---0---0----0---0-----2----2--------|
A|-------------------------------0----0-----|
E|-3-3---3---3---3----3---3-----------------|

Parte 3 de 4
   Dm                Am    
E|-1---1---1---1----------------------------|
B|-3---3---3---3-----1---1---1---1----------|
G|-2---2---2---2-----2---2---2---2----------|
D|-0-0---0---0---0---2---2---2---2----------|
A|-------------------0-0---0---0---0--------|
E|------------------------------------------|

Parte 4 de 4
   G                          
E|------------------------------------------|
B|-0---0---0---0----0-----------------------|
G|-0---0---0---0----0-----------------------|
D|-0---0---0---0----0-----------------------|
A|------------------------------------------|
E|-3-3---3---3------3-----------------------|

    Dm          Am
And I tend to close my eyes 
         G
When it hurts sometimes
          Am     Dm
I fall into your arms
         Am 
I'll be safe in your sound 'til 
   G
I come back around

[Refrão Final]

[TAB - Refrão final]

[Parte 1 De 6]
    C   G   Am  F   C  G   Am  F
E|------------------------------------------|
B|-1---0---1---1---1---0---1---1------------|
G|-0---0---2---2---0---0---2---2------------|
D|-2---0---2---3---2---0---2---3------------|
A|-3-------0-------3-------0----------------|
E|-----3-------1-------3-------1------------|

Parte 2 de 6
   C                 G
E|------------------------------------------|
B|-1---1---1---1-----0---0---0---0----------|
G|-0---0---0---0-----0---0---0---0----------|
D|-2---2---2---2-----0---0---0---0----------|
A|-3-3---3---3---3--------------------------|
E|-------------------3-3---3---3---3--------|

Parte 3 de 6
   Am                F
E|------------------------------------------|
B|-1---1---1---1-----1---1---1---1----------|
G|-2---2---2---2-----2---2---2---2----------|
D|-2---2---2---2-----3---3---3---3----------|
A|-0-0---0---0---0--------------------------|
E|-------------------1-1---1---1---1--------|

Parte 4 de 6
   C                 G
E|------------------------------------------|
B|-1---1---1---1-----0---0---0---0----------|
G|-0---0---0---0-----0---0---0---0----------|
D|-2---2---2---2-----0---0---0---0----------|
A|-3-3---3---3---3--------------------------|
E|-------------------3-3---3---3---3--------|

Parte 5 de 6
   Am                F
E|------------------------------------------|
B|-1---1---1---1-----1---1---1---1----------|
G|-2---2---2---2-----2---2---2---2----------|
D|-2---2---2---2-----3---3---3---3----------|
A|-0-0---0---0---0--------------------------|
E|-------------------1-1---1---1---1--------|

Parte 6 de 6
   C   G   Am  F   C
E|-----------------0------------------------|
B|-1---0---1---1---1------------------------|
G|-0---0---2---2---0------------------------|
D|-2---0---2---3---2------------------------|
A|-3-------0-------3------------------------|
E|-----3-------1----------------------------|
                   ↓

                  C               G
For now the day bleeds into nightfall
                Am
And you're not here 
                     F
To get me through it all
                C
I let my guard down 
                         G
And then you pulled the rug
 
I was getting kinda 
Am                         F
Used to being someone you loved

                  C               G
But now the day bleeds into nightfall
                Am
And you're not here 
                     F
To get me through it all
                C
I let my guard down 
                         G
And then you pulled the rug

I was getting kinda 
Am                         F
Used to being someone you loved
                C
I let my guard down 
                         G
And then you pulled the rug

I was getting kinda 
Am                         F     C
Used to being someone you loved
00:00 / 00:00
Outros vídeos desta música
Repetir
Outros vídeos desta música
Composição de Benjamin Kohn / Chris Daughtry / Lewis Capaldi / Pete Kelleher / Samuel Roman / Tom Barnes
Colaboração e revisão:
  • Caico Antunes
  • Thiago Almeida
10.029 exibições
    • ½ Tom
    • A
    • Bb
    • B
    • C
    • Db
    • D
    • Eb
    • E
    • F
    • F#
    • G
    • Ab
  • Adicionar à lista

    0 comentários

    Ver todos os comentários

    Conseguiu tocar?

    3 Tocaram 3 Ainda não

    Grave um vídeo tocando Someone You Loved e nos envie!

    00:00 / 00:00
    Capítulos
    • Tocando a Música
    • Acordes da Música
    • Tocando Introdução e Primeira Parte
    • Ensinando Dedilhado Padrão
    • Tocando Terceira Parte
    • Ensinando Terceira Parte
    • Dicas Refrão Final
    • Tocando Refrão Final
    • Encerramento

    Cifra Club Pro

    Aproveite o Cifra Club com benefícios exclusivos e sem anúncios
    Cifra Club Pro
    Aproveite o Cifra Club com benefícios exclusivos e sem anúncios
    OK