Cifra Club

Só Depois do Carnaval

Lexa

Cifra: Principal (violão e guitarra)
Tom: G#m
[Intro] D#7  G#m7

E|-----6-7-6---6-6-------6-------7-6--------------|
B|-9-9-------9-----9-8-----9-8-------9------------|
G|---------------------8-------8-------9-8--------|
D|------------------------------------------------|
A|------------------------------------------------|
E|------------------------------------------------|

D#7
Olha que cara de pau
G#m7
Agora quer dar moral
D#/G
Quer ciscar no meu quintal
G#m7
Esse papo de casal
Só depois do carnaval

G#m7
Agora é hora de sentar
                D#7
Não é hora de parar
Chama as amiga pra cá
                     G#m7 
Pras sapequinha provocar 

G#m7
Agora é hora de sentar
                D#7
Não é hora de parar
Chama as amiga pra cá
                     G#m7 (Pausa)
Pras sapequinha provocar 

                   D#7
Ele tá vendo o popotão descendo
             G#m7
Tá querendo, tá sofrendo
                   D#7
Ele tá vendo o popotão descendo
             G#m7
Tá querendo, tá sofrendo

[Solo] D#7  G#m7 
       D#7  G#m7
 
E|-----6-7-6---6-6-------6-------7-6--------------|
B|-9-9-------9-----9-8-----9-8-------9------------|
G|---------------------8-------8-------8----------|
D|------------------------------------------------|
A|------------------------------------------------|
E|------------------------------------------------|

E|-----6-7-6---6-6-------6-------7-6--------------|
B|-9-9-------9-----9-8-----9-8-------9------------|
G|---------------------8-------8-------8/9\8------|
D|------------------------------------------------|
A|------------------------------------------------|
E|------------------------------------------------|

D#7
Hoje eu vou jogar o bumbum
Só quero jogar o bumbum
G#m7
Joga até cansar o bumbum
Joga o bumbum, joga o bumbum
D#7
Hoje eu vou jogar o bumbum
Só quero jogar o bumbum
G#m7
Joga até cansar o bumbum
Joga o bumbum (2x)

                   D#7
Ele tá vendo o popotão descendo
             G#m7
Tá querendo, tá sofrendo
                   D#7
Ele tá vendo o popotão descendo
             G#m7
Tá querendo, tá sofrendo
exibições 1.229
Acordes para:
    Composição: ANDERSON BRITO / André Vieira / Pedro Breder / Wallace Vianna Colaboração e revisão:
    • Luciano Lira

    0 comentários

    mostrar mais comentários

    Conseguiu tocar?

    0 tocaram 0 ainda não

    Grave um vídeo tocando Só Depois do Carnaval e mande pra gente!

    00:00 / 00:00
    outros vídeos desta música
    repetir qualidade Automático
    Outros vídeos desta música
    00:00 / 00:00
    Automático
    OK