Cifra Club

Hambre

Libido

Cifra: Principal (violão e guitarra)
tom: Em
E|----------------------------------------------|
B|----------------------------------------------|
G|-------0------------0---------------2---------|
D|-----------------2----2-----------------------|
A|----2-----0-2-3------------------3-----0------|
E|--0-----------------------3-2-1----------0----|


A  nota F# *  es asi, las 'X' son las ke se pisan :

  2do traste
E|-----------------------------------------|
B|--x--------------------------------------|
G|----x------------------------------------|
D|------x----------------------------------|
A|------x----------------------------------|
E|-----------------------------------------|

 -Es como un Fa# pero sin pisar la primera ni la sexta
  Cuerda. y la nota Fa* es lo mismo solo que un traste
   mas atras.



   Em        C 
   Hambre de ti
   F            Em 
   De tu mirada vil
   Em        C     F           Em 
   No sé vivir si tú no estas aquí
             C   Cm   G   F# *
   ¿Dónde estás?

   Em         C 
   Me arrastraré
   F                     Em 
   Quiero estar a tus pies
    Em        C   F        Em 
   Desangraré todo mi corazón
          C       Cm         G    F# * F * E 
   Por un beso mi alma entregaré

   Em        C 
   Olvidaré
        F           Em 
   Mi larga humillación
   Em 
   Te besaré con toda condición
          C       Cm          G    F# * F * E 
   Al infierno mi alma entregaré

[Coro]

 A       B             E 
   Cómo no creer en ti
 A       B              C#m   A (con puente) F#  D7   E 
   Cómo ser hombre sin ti

[Repetir el intro 2 veces]

   Em        C 
   Hambre de ti
   F            Em 
   De tu mirada vil
   Em        C     F           Em 
   No sé vivir si tú no estas aquí
             C   Cm   G   F# *  F * E 
   ¿Dónde estás?
00:00 / 00:00
Outros vídeos desta música
Repetir
Outros vídeos desta música
Compositor não encontrado.
1 exibições
    • ½ Tom
    • Am
    • Bbm
    • Bm
    • Cm
    • C#m
    • Dm
    • Ebm
    • Em
    • Fm
    • F#m
    • Gm
    • G#m
  • Adicionar à lista

    0 comentários

    Ver todos os comentários

    Conseguiu tocar?

    0 Tocaram 0 Ainda não

    Grave um vídeo tocando Hambre e nos envie!

    Entre para oCifra Club PRO

    Tenha acesso a benefícios exclusivos no App e no Site

    • Chega de anúncios

    • Prioridade de compra em lançamentos

    • Mais recursos no app do Afinador

    • Atendimento Prioritário

    • Descontos nos produtos Cifra Club

    • Ajude a produzir mais conteúdo

    00:00 / 00:00

    Cifra Club Pro

    Aproveite o Cifra Club com benefícios exclusivos e sem anúncios
    Cifra Club Pro
    Aproveite o Cifra Club com benefícios exclusivos e sem anúncios
    OK