Cifra Club

Blind

Lifehouse

Cifra: Completa (violão e guitarra)
tom: A
(Intro)

Guitar 1:

     A            F#m         D D9 D        E E4 E
E|--5-5-5-5-5-5--2-2-2-2-2-2--2-0-2-2-2-2--0-0-0-0-0-0--|
B|--5-5-5-5-5-5--2-2-2-2-2-2--3-3-3-3-3-3--0-0-0-0-0-0--|
G|--6-6-6-6-6-6--2-2-2-2-2-2--2-2-2-2-2-2--1-2-1-1-1-1--|
D|--7-7-7-7-7-7--4-4-4-4-4-4--0-0-0-0-0-0--2-2-2-2-2-2--|
A|--7-7-7-7-7-7--4-4-4-4-4-4---------------2-2-2-2-2-2--|
E|--5-5-5-5-5-5--2-2-2-2-2-2---------------0-0-0-0-0-0--|

     A           F#m          D D9 D       E E4 E
E|--5-5-5-5-5-5--2-2-2-2-2-2--2-0-2-2-2-2--0-0-0-0-0-0--|
B|--5-5-5-5-5-5--2-2-2-2-2-2--3-3-3-3-3-3--0-0-0-0-0-0--|
G|--6-6-6-6-6-6--2-2-2-2-2-2--2-2-2-2-2-2--1-2-1-1-1-1--|
D|--7-7-7-7-7-7--4-4-4-4-4-4--0-0-0-0-0-0--2-2-2-2-2-2--|
A|--7-7-7-7-7-7--4-4-4-4-4-4---------------2-2-2-2-2-2--|
E|--5-5-5-5-5-5--2-2-2-2-2-2---------------0-0-0-0-0-0--|

Guitar 2:

    A             F#m    D D9 D    E E4 E    A       F#m     D D9 D   E E4 E
E|---------------------------------------|--------------------------12------|
B|-------2-------------------------------|-14~--14-12~--12-14~---------12~--|
G|-4-2-4----4-2-1---1-2------------1-2-1-|----------------------------------|
D|----------------4------2-4-2-4---------|----------------------------------|
A|---------------------------------------|----------------------------------|
E|---------------------------------------|----------------------------------|

(Verse 1)

Guitar 1:

     A           F#m           D D9 D       E E4 E
E|--5-5-5-5-5-5--2-2-2-2-2-2--2-0-2-2-2-2--0-0-0-0-0-0--|
B|--5-5-5-5-5-5--2-2-2-2-2-2--3-3-3-3-3-3--0-0-0-0-0-0--|
G|--6-6-6-6-6-6--2-2-2-2-2-2--2-2-2-2-2-2--1-2-1-1-1-1--|
D|--7-7-7-7-7-7--4-4-4-4-4-4--0-0-0-0-0-0--2-2-2-2-2-2--|
A|--7-7-7-7-7-7--4-4-4-4-4-4---------------2-2-2-2-2-2--|
E|--5-5-5-5-5-5--2-2-2-2-2-2---------------0-0-0-0-0-0--|

     A           F#m           D D9 D        E E4 E       D (4x)
E|--5-5-5-5-5-5--2-2-2-2-2-2--2-0-2-2-2-2--0-0-0-0-0-0--2-2-2-2-2-2--|
B|--5-5-5-5-5-5--2-2-2-2-2-2--3-3-3-3-3-3--0-0-0-0-0-0--3-3-3-3-3-3--|
G|--6-6-6-6-6-6--2-2-2-2-2-2--2-2-2-2-2-2--1-2-1-1-1-1--2-2-2-2-2-2--|
D|--7-7-7-7-7-7--4-4-4-4-4-4--0-0-0-0-0-0--2-2-2-2-2-2--0-0-0-0-0-0--|
A|--7-7-7-7-7-7--4-4-4-4-4-4---------------2-2-2-2-2-2---------------|
E|--5-5-5-5-5-5--2-2-2-2-2-2---------------0-0-0-0-0-0---------------|

Guitar 2:

    A            F#m    D D9 D   E E4 E
E|-------------------------------------|
B|-------2-----------------------------|
G|-4-2-4---4-2-1---1-2-----------1-2-1-|
D|---------------4------2-4-2-4--------|
A|-------------------------------------|
E|-------------------------------------|
    A            F#m    D D9 D   E E4 E   D (4x)
E|--------------------------------------|-----------------------------------|
B|-------2------------------------------|-10--10-9-10--10-9-10--10-9-10-12~-|
G|-4-2-4---4-2-1---1-2-----------1-2-1--|-----------------------------------|
D|---------------4------2-4-2-4---------|-----------------------------------|
A|--------------------------------------|-----------------------------------|
E|--------------------------------------|-----------------------------------|


(Pré-refrão 1)


Guitar 1:

     A            E            D            E
E|--5-5-5-5-5-5--0-0-0-0-0-0--2-2-2-2-2-2--0-0-0-0-0-0---|
B|--5-5-5-5-5-5--0-0-0-0-0-0--3-3-3-3-3-3--0-0-0-0-0-0---|
G|--6-6-6-6-6-6--1-1-1-1-1-1--2-2-2-2-2-2--1-1-1-1-1-1---|
D|--7-7-7-7-7-7--2-2-2-2-2-2--0-0-0-0-0-0--2-2-2-2-2-2---|
A|--7-7-7-7-7-7--2-2-2-2-2-2---------------2-2-2-2-2-2---|
E|--5-5-5-5-5-5--0-0-0-0-0-0---------------0-0-0-0-0-0---|

     A            E            D            E
E|--5-5-5-5-5-5--0-0-0-0-0-0--2-2-2-2-2-2--0-0-0-0-0-0---|
B|--5-5-5-5-5-5--0-0-0-0-0-0--3-3-3-3-3-3--0-0-0-0-0-0---|
G|--6-6-6-6-6-6--1-1-1-1-1-1--2-2-2-2-2-2--1-1-1-1-1-1---|
D|--7-7-7-7-7-7--2-2-2-2-2-2--0-0-0-0-0-0--2-2-2-2-2-2---|
A|--7-7-7-7-7-7--2-2-2-2-2-2---------------2-2-2-2-2-2---|
E|--5-5-5-5-5-5--0-0-0-0-0-0---------------0-0-0-0-0-0---|

Guitar 2:

    A  E    D       E
E|-------7---------------------|
B|-5~-5----7~--7-9-10~-9-10~\--|
G|-----------------------------|
D|-----------------------------|
A|-----------------------------|
E|-----------------------------|

    A  E    D       E
E|-------7---------------------|
B|-5~-5----7~--7-9-10~-9-10~---|
G|-----------------------------|
D|-----------------------------|
A|-----------------------------|
E|-----------------------------|


(Refrão 1)

Guitar 1:

     F#m          D            A            E
E|--2-2-2-2-2-2--2-2-2-2-2-2--0-0-0-0-0-0--0-0-0-0-0-0--|
B|--2-2-2-2-2-2--3-3-3-3-3-3--2-2-2-2-2-2--0-0-0-0-0-0--|
G|--2-2-2-2-2-2--2-2-2-2-2-2--2-2-2-2-2-2--1-1-1-1-1-1--|
D|--4-4-4-4-4-4--0-0-0-0-0-0--2-2-2-2-2-2--2-2-2-2-2-2--|
A|--4-4-4-4-4-4---------------0-0-0-0-0-0--2-2-2-2-2-2--|
E|--2-2-2-2--------------------------------0-0-0-0-0-0--|

     F#m          D            A            E            D (3x)
E|--2-2-2-2-2-2--2-2-2-2-2-2--0-0-0-0-0-0--0-0-0-0-0-0--2-2-2-2-2-2--|
B|--2-2-2-2-2-2--3-3-3-3-3-3--2-2-2-2-2-2--0-0-0-0-0-0--3-3-3-3-3-3--|
G|--2-2-2-2-2-2--2-2-2-2-2-2--2-2-2-2-2-2--1-1-1-1-1-1--2-2-2-2-2-2--|
D|--4-4-4-4-4-4--0-0-0-0-0-0--2-2-2-2-2-2--2-2-2-2-2-2--0-0-0-0-0-0--|
A|--4-4-4-4-4-4---------------0-0-0-0-0-0--2-2-2-2-2-2---------------|
E|--2-2-2-2-2-2----------------------------0-0-0-0-0-0---------------|

Guitar 2:

    F#m   D                A   E
E|-9--9--9--9-12-14--------------------------------------|
B|------------------12-10h12~--12-12-12-10-10-10-9-9-9---|
G|-----------------------------------------------------9-|
D|-------------------------------------------------------|
A|-------------------------------------------------------|
E|-------------------------------------------------------|

    F#m   D                A   E                            D (3x)
E|-9--9--9--9-12-14--------------------------------------|-----------------------------------|
B|------------------12-10h12~--12-12-12-10-10-10-9-9-9---|-10--10-9-10--10-9-10--10-9-10-12~-|
G|-----------------------------------------------------9-|-----------------------------------|
D|-------------------------------------------------------|-----------------------------------|
A|-------------------------------------------------------|-----------------------------------|
E|-------------------------------------------------------|-----------------------------------|

(Verse 2)

Guitar 1:

     A            F#m          D D9 D       E E4 E
E|--5-5-5-5-5-5--2-2-2-2-2-2--2-0-2-2-2-2--0-0-0-0-0-0--|
B|--5-5-5-5-5-5--2-2-2-2-2-2--3-3-3-3-3-3--0-0-0-0-0-0--|
G|--6-6-6-6-6-6--2-2-2-2-2-2--2-2-2-2-2-2--1-2-1-1-1-1--|
D|--7-7-7-7-7-7--4-4-4-4-4-4--0-0-0-0-0-0--2-2-2-2-2-2--|
A|--7-7-7-7-7-7--4-4-4-4-4-4---------------2-2-2-2-2-2--|
E|--5-5-5-5-5-5--2-2-2-2-2-2---------------0-0-0-0-0-0--|

     A            F#m          D D9 D       E E4 E       D (3x)
E|--5-5-5-5-5-5--2-2-2-2-2-2--2-0-2-2-2-2--0-0-0-0-0-0--2-2-2-2-2-2--|
B|--5-5-5-5-5-5--2-2-2-2-2-2--3-3-3-3-3-3--0-0-0-0-0-0--3-3-3-3-3-3--|
G|--6-6-6-6-6-6--2-2-2-2-2-2--2-2-2-2-2-2--1-2-1-1-1-1--2-2-2-2-2-2--|
D|--7-7-7-7-7-7--4-4-4-4-4-4--0-0-0-0-0-0--2-2-2-2-2-2--0-0-0-0-0-0--|
A|--7-7-7-7-7-7--4-4-4-4-4-4---------------2-2-2-2-2-2---------------|
E|--5-5-5-5-5-5--2-2-2-2-2-2---------------0-0-0-0-0-0---------------|

Guitar 2:

    A            F#m    D D9 D   E E4 E
E|-------------------------------------|
B|-------2-----------------------------|
G|-4-2-4---4-2-1---1-2-----------1-2-1-|
D|---------------4------2-4-2-4--------|
A|-------------------------------------|
E|-------------------------------------|

    A            F#m    D D9 D   E E4 E   D (3x)
E|--------------------------------------|-----------------------------------|
B|-------2------------------------------|-10--10-9-10--10-9-10--10-9-10-12~-|
G|-4-2-4---4-2-1---1-2-----------1-2-1--|-----------------------------------|
D|---------------4------2-4-2-4---------|-----------------------------------|
A|--------------------------------------|-----------------------------------|
E|--------------------------------------|-----------------------------------|


(Pré-refrão 2)

Guitar 1:

     A            E            D            E
E|--5-5-5-5-5-5--0-0-0-0-0-0--2-2-2-2-2-2--0-0-0-0-0-0--|
B|--5-5-5-5-5-5--0-0-0-0-0-0--3-3-3-3-3-3--0-0-0-0-0-0--|
G|--6-6-6-6-6-6--1-1-1-1-1-1--2-2-2-2-2-2--1-1-1-1-1-1--|
D|--7-7-7-7-7-7--2-2-2-2-2-2--0-0-0-0-0-0--2-2-2-2-2-2--|
A|--7-7-7-7-7-7--2-2-2-2-2-2---------------2-2-2-2-2-2--|
E|--5-5-5-5-5-5--0-0-0-0-0-0---------------0-0-0-0-0-0--|

     A            E            D            E
E|--5-5-5-5-5-5--0-0-0-0-0-0--2-2-2-2-2-2--0-0-0-0-0-0--|
B|--5-5-5-5-5-5--0-0-0-0-0-0--3-3-3-3-3-3--0-0-0-0-0-0--|
G|--6-6-6-6-6-6--1-1-1-1-1-1--2-2-2-2-2-2--1-1-1-1-1-1--|
D|--7-7-7-7-7-7--2-2-2-2-2-2--0-0-0-0-0-0--2-2-2-2-2-2--|
A|--7-7-7-7-7-7--2-2-2-2-2-2---------------2-2-2-2-2-2--|
E|--5-5-5-5-5-5--0-0-0-0-0-0---------------0-0-0-0-0-0--|

Guitar 2:

    A  E    D       E
E|-------7--------------------|
B|-5~-5----7~--7-9-10~-9-10~--|
G|----------------------------|
D|----------------------------|
A|----------------------------|
E|----------------------------|

    A  E    D       E
E|-------7--------------------|
B|-5~-5----7~--7-9-10~-9-10~--|
G|----------------------------|
D|----------------------------|
A|----------------------------|
E|----------------------------|

(Refrão 2)

Guitar 1:

     F#m          D            A            E
E|--2-2-2-2-2-2--2-2-2-2-2-2--0-0-0-0-0-0--0-0-0-0-0-0--|
B|--2-2-2-2-2-2--3-3-3-3-3-3--2-2-2-2-2-2--0-0-0-0-0-0--|
G|--2-2-2-2-2-2--2-2-2-2-2-2--2-2-2-2-2-2--1-1-1-1-1-1--|
D|--4-4-4-4-4-4--0-0-0-0-0-0--2-2-2-2-2-2--2-2-2-2-2-2--|
A|--4-4-4-4-4-4---------------0-0-0-0-0-0--2-2-2-2-2-2--|
E|--2-2-2-2-2-2----------------------------0-0-0-0-0-0--|

     F#m          D            A            E
E|--2-2-2-2-2-2--2-2-2-2-2-2--0-0-0-0-0-0--0-0-0-0-0-0--|
B|--2-2-2-2-2-2--3-3-3-3-3-3--2-2-2-2-2-2--0-0-0-0-0-0--|
G|--2-2-2-2-2-2--2-2-2-2-2-2--2-2-2-2-2-2--1-1-1-1-1-1--|
D|--4-4-4-4-4-4--0-0-0-0-0-0--2-2-2-2-2-2--2-2-2-2-2-2--|
A|--4-4-4-4-4-4---------------0-0-0-0-0-0--2-2-2-2-2-2--|
E|--2-2-2-2-2-2----------------------------0-0-0-0-0-0--|

Guitar 2:

    F#m   D                A   E
E|-9--9--9--9-12-14---------------------------------------|
B|------------------12-10h12~--12-12-12-10-10-10-9-9-9----|
G|-----------------------------------------------------9--|
D|--------------------------------------------------------|
A|--------------------------------------------------------|
E|--------------------------------------------------------|

    F#m   D                A   E
E|-9--9--9--9-12-14---------------------------------------|
B|------------------12-10h12~--12-12-12-10-10-10-9-9-9----|
G|-----------------------------------------------------9--|
D|--------------------------------------------------------|
A|--------------------------------------------------------|
E|--------------------------------------------------------|

(Solo)

Guitar 1:

    D                        Bm                       F#m                      E
E|-2-2-2-2-2-2-2-2-2-2-2-2--2-2-2-2-2-2-2-2-2-2-2-2--2-2-2-2-2-2-2-2-2-2-2-2--0-0-0-0-0-0-0-0-0-0-0-0--|
B|-3-3-3-3-3-3-3-3-3-3-3-3--3-3-3-3-3-3-3-3-3-3-3-3--2-2-2-2-2-2-2-2-2-2-2-2--0-0-0-0-0-0-0-0-0-0-0-0--|
G|-2-2-2-2-2-2-2-2-2-2-2-2--4-4-4-4-4-4-4-4-4-4-4-4--2-2-2-2-2-2-2-2-2-2-2-2--1-1-1-1-1-1-1-1-1-1-1-1--|
D|-0-0-0-0-0-0-0-0-0-0-0-0--4-4-4-4-4-4-4-4-4-4-4-4--4-4-4-4-4-4-4-4-4-4-4-4--2-2-2-2-2-2-2-2-2-2-2-2--|
A|--------------------------2-2-2-2-2-2-2-2-2-2-2-2--4-4-4-4-4-4-4-4-4-4-4-4--2-2-2-2-2-2-2-2-2-2-2-2--|
E|---------------------------------------------------2-2-2-2-2-2-2-2-2-2-2-2--0-0-0-0-0-0-0-0-0-0-0-0--|

Guitar 2:

    D                                   Bm
E|-------------------------------------------------------------------------|
B|-5-7----------------------------------5-7--------------------------------|
G|-----6--6-6-6--6-6-6--6-6-6-6h7p6---------6b7-6~--6-6-6--6-6-6-6h7p6-----|
D|----------------------------------9-7--------------------------------9-7-|
A|-------------------------------------------------------------------------|
E|-------------------------------------------------------------------------|

    F#m                                E
E|-------------------------------------------------------------------------|
B|-5-7---------------------------------------------------------------------|
G|-----6--6-6-6--6-6-6--6-6-6--6-4-2--1-2---1~/13-13-13-13-13-13-13-13-----|
D|----------------------------------------2--------------------------------|
A|-------------------------------------------------------------------------|
E|-------------------------------------------------------------------------|


(Pré-refrão 2)

Guitar 1:

     A            E            D            E
E|--5-5-5-5-5-5--0-0-0-0-0-0--2-2-2-2-2-2--0-0-0-0-0-0---|
B|--5-5-5-5-5-5--0-0-0-0-0-0--3-3-3-3-3-3--0-0-0-0-0-0---|
G|--6-6-6-6-6-6--1-1-1-1-1-1--2-2-2-2-2-2--1-1-1-1-1-1---|
D|--7-7-7-7-7-7--2-2-2-2-2-2--0-0-0-0-0-0--2-2-2-2-2-2---|
A|--7-7-7-7-7-7--2-2-2-2-2-2---------------2-2-2-2-2-2---|
E|--5-5-5-5-5-5--0-0-0-0-0-0---------------0-0-0-0-0-0---|

     A            E            D            E
E|--5-5-5-5-5-5--0-0-0-0-0-0--2-2-2-2-2-2--0-0-0-0-0-0---|
B|--5-5-5-5-5-5--0-0-0-0-0-0--3-3-3-3-3-3--0-0-0-0-0-0---|
G|--6-6-6-6-6-6--1-1-1-1-1-1--2-2-2-2-2-2--1-1-1-1-1-1---|
D|--7-7-7-7-7-7--2-2-2-2-2-2--0-0-0-0-0-0--2-2-2-2-2-2---|
A|--7-7-7-7-7-7--2-2-2-2-2-2---------------2-2-2-2-2-2---|
E|--5-5-5-5-5-5--0-0-0-0-0-0---------------0-0-0-0-0-0---|

Guitar 2:

    A   E   D   E
E|-9~--7~--9~--7~-7HA-7-7--7HA-7-7-|
B|---------------------------------|
G|------=--------------------------|
D|---------------------------------|
A|---------------------------------|
E|---------------------------------|

(Refrão 3)

Guitar 1:

     F#m          D            A            E
E|--2-2-2-2-2-2--2-2-2-2-2-2--0-0-0-0-0-0--0-0-0-0-0-0--|
B|--2-2-2-2-2-2--3-3-3-3-3-3--2-2-2-2-2-2--0-0-0-0-0-0--|
G|--2-2-2-2-2-2--2-2-2-2-2-2--2-2-2-2-2-2--1-1-1-1-1-1--|
D|--4-4-4-4-4-4--0-0-0-0-0-0--2-2-2-2-2-2--2-2-2-2-2-2--|
A|--4-4-4-4-4-4---------------0-0-0-0-0-0--2-2-2-2-2-2--|
E|--2-2-2-2-2-2-----------------------------0-0-0-0-0-0-|

     F#m          D            A            E
E|--2-2-2-2-2-2--2-2-2-2-2-2--0-0-0-0-0-0--0-0-0-0-0-0--|
B|--2-2-2-2-2-2--3-3-3-3-3-3--2-2-2-2-2-2--0-0-0-0-0-0--|
G|--2-2-2-2-2-2--2-2-2-2-2-2--2-2-2-2-2-2--1-1-1-1-1-1--|
D|--4-4-4-4-4-4--0-0-0-0-0-0--2-2-2-2-2-2--2-2-2-2-2-2--|
A|--4-4-4-4-4-4---------------0-0-0-0-0-0--2-2-2-2-2-2--|
E|--2-2-2-2-2-2----------------------------0-0-0-0-0-0-|
    F#m           D            A            E
E|--2-2-2-2-2-2--2-2-2-2-2-2--0-0-0-0-0-0--0-0-0-0-0-0--|
B|--2-2-2-2-2-2--3-3-3-3-3-3--2-2-2-2-2-2--0-0-0-0-0-0--|
G|--2-2-2-2-2-2--2-2-2-2-2-2--2-2-2-2-2-2--1-1-1-1-1-1--|
D|--4-4-4-4-4-4--0-0-0-0-0-0--2-2-2-2-2-2--2-2-2-2-2-2--|
A|--4-4-4-4-4-4---------------0-0-0-0-0-0--2-2-2-2-2-2--|
E|--2-2-2-2-2-2----------------------------0-0-0-0-0-0--|

    F#m           D             A           E            D (6x)
E|--2-2-2-2-2-2--2-2-2-2-2-2--0-0-0-0-0-0--0-0-0-0-0-0--2-2-2-2-2-2--|
B|--2-2-2-2-2-2--3-3-3-3-3-3--2-2-2-2-2-2--0-0-0-0-0-0--3-3-3-3-3-3--|
G|--2-2-2-2-2-2--2-2-2-2-2-2--2-2-2-2-2-2--1-1-1-1-1-1--2-2-2-2-2-2--|
D|--4-4-4-4-4-4--0-0-0-0-0-0--2-2-2-2-2-2--2-2-2-2-2-2--0-0-0-0-0-0--|
A|--4-4-4-4-4-4---------------0-0-0-0-0-0--2-2-2-2-2-2---------------|
E|--2-2-2-2-2-2----------------------------0-0-0-0-0-0---------------|

Guitar 2:

    F#m              D                 A           E
E|----------------------------------7-9~--10-10-9-7--7-7-7--------------------|
B|-5-7~-7-5-7-7~--9-10~-10-9-10-10~------------------------10-10-10~-9-9-9~\--|
G|----------------------------------------------------------------------------|
D|----------------------------------------------------------------------------|
A|----------------------------------------------------------------------------|
E|----------------------------------------------------------------------------|

    F#m              D                 A           E
E|----------------------------------7-9~--10-10-9-7--7-7-7--------------------|
B|-5h7~-7-5-7-7~--9-10~-10-9-10-10~------------------------10-10-10~-9-9-9~\--|
G|----------------------------------------------------------------------------|
D|----------------------------------------------------------------------------|
A|----------------------------------------------------------------------------|
E|----------------------------------------------------------------------------|

     F#m              D                A           E
E|----------------------------------7-9~--10-10-9-7--7-7-7--------------------|
B|-5h7~-7-5-7-7~--9-10~-10-9-10-10~------------------------10-10-10~-9-9-9~\--|
G|----------------------------------------------------------------------------|
D|----------------------------------------------------------------------------|
A|----------------------------------------------------------------------------|
E|----------------------------------------------------------------------------|
    F#m              D                 A           E
E|----------------------------------7-9~--10-10-9-7--7-7-7--------------------|
B|-5h7~-7-5-7-7~--9-10~-10-9-10-10~------------------------10-10-10~-9-9-9~\--|
G|----------------------------------------------------------------------------|
D|----------------------------------------------------------------------------|
A|----------------------------------------------------------------------------|
E|----------------------------------------------------------------------------|
    D (6x)
E|------------------------------------|
B|-10--10-9-10--10-9-10--10-9-10--12--|
G|------------------------------------|
D|------------------------------------|
A|------------------------------------|
E|------------------------------------|
Composição de Jason Wade
Colaboração e revisão:
  • Wesclen Lima
1.598 exibições
  • Simplificar cifra
    • ½ Tom
    • A
    • Bb
    • B
    • C
    • Db
    • D
    • Eb
    • E
    • F
    • F#
    • G
    • Ab
  • Adicionar à lista

    0 comentários

    Ver todos os comentários

    Conseguiu tocar?

    0 Tocaram 0 Ainda não

    Grave um vídeo tocando Blind e nos envie!

    00:00 / 00:00
    Outros vídeos desta música
    Repetir Qualidade Automático
    Outros vídeos desta música
    00:00 / 00:00
    Automático

    Cifra Club Pro

    Aproveite o Cifra Club com benefícios exclusivos e sem anúncios
    Cifra Club Pro
    Aproveite o Cifra Club com benefícios exclusivos e sem anúncios
    OK