Cifra Club

Aprenda

Blind

Lifehouse

Tab de baixo: Principal
(intro) (00:11)
G|----------|----------|----------|----------|
D|----------|----------|-0--0---0-|----------|
A|-0--0---0-|----------|----------|----------|
E|----------|-2--2---2-|----------|-0--0---0-|

(verso 1) (00:22)
G|----------|----------|----------|----------|
D|----------|----------|-0--0---0-|-2--2---2-|
A|-0--0---0-|----------|----------|----------|
E|----------|-2--2---2-|----------|----------|

G|----------|----------|----------|----------|
D|----------|-4--4---4-|-0--0---0-|----------|
A|-0--0---0-|----------|----------|----------|
E|----------|----------|----------|-0--0---0-|

(ponte 2x) (00:43)
G|-7---7-7---7-7-|-7---7-7---7-7-|
D|---7-----7-----|---7-----7-----|
A|---------------|---------------|  
E|---------------|---------------|

(refrão 1) (00:55)
G|-------------|---------------|-----------|---------------|
D|-----------1-|-2----2-2--2-2-|-0-0-0-0-0-|-2----2-2--2-2-|
A|-0--0--2-4---|----0----------|-----------|----0----------|
E|-------------|---------------|-----------|---------------|

G|-------------|---------------|-----------|-------------|
D|-----------1-|-2----2-2--2-2-|-0-0-0-0-0-|-2--2-2--2-2-|
A|-0--0--2-4---|----0----------|-----------|-------------|
E|-------------|---------------|-----------|-------------|

(refrão 2) (01:17)
G|---------|----------1-2-2--1-|----------|
D|---------|-0--0-0-4----------|-2--2-2-2-|
A|----0--4-|-------------------|----------|
E|-2-------|-------------------|----------|

G|----------|------------|---------|---------|
D|-4--4-4-2-|-0---0-0--0-|---------|---------|
A|----------|---0--------|-0--0--0-|-7--7--7-|
E|----------|------------|---------|-0--0--0-|

(ponte) (01:39)
G|-7---7-7---7-7-|-7---7-7---7-7-|-7---7-7---7-7-|
D|---7-----7-----|---7-----7-----|---7-----7-----|
A|---------------|---------------|---------------|
E|---------------|---------------|---------------|

(verso 2) (01:47)
G|----------|----------|----------|----------|
D|----------|----------|-0--0---0-|-2--2---2-|
A|-0--0---0-|----------|----------|----------|
E|----------|-2--2---2-|----------|----------|

G|----------|----------|----------|----------|
D|----------|-4--4---4-|-0--0---0-|----------|
A|-0--0---0-|----------|----------|----------|
E|----------|----------|----------|-0--0---0-|

(ponte) (02:09)
G|-7---7-7---7-7-|-7---7-7---7-7-|-7---7-7---7-7-|
D|---7-----7-----|---7-----7-----|---7-----7-----|
A|---------------|---------------|---------------|
E|---------------|---------------|---------------|

(refrão 1) (02:18)
G|-------------|---------------|-----------|---------------|
D|-----------1-|-2----2-2--2-2-|-0-0-0-0-0-|-2----2-2--2-2-|
A|-0--0--2-4---|----0----------|-----------|----0----------|
E|-------------|---------------|-----------|---------------|

G|-------------|---------------|-----------|-------------|
D|-----------1-|-2----2-2--2-2-|-0-0-0-0-0-|-2--2-2--2-2-|
A|-0--0--2-4---|----0----------|-----------|-------------|
E|-------------|---------------|-----------|-------------|

(refrão 2) (02:40)
G|---------|----------1-2-2--1-|----------|
D|---------|-0--0-0-4----------|-2--2-2-2-|
A|----0--4-|-------------------|----------|
E|-2-------|-------------------|----------|

G|----------|------------|---------|---------|
D|-4--4-4-2-|-0---0-0--0-|---------|---------|
A|----------|---0--------|-0--0--0-|-7--7--7-|
E|----------|------------|---------|-0--0--0-|

(solo) (03:01)
G|-------------------|-------------------|
D|-0----0-0----0-0---|-0----0-0----0-0---|
A|----0------0-----0-|----0------0-----0-|
E|-------------------|-------------------|

G|-4----4-4----4--4-4---|-4----4-4----4--4-4---|
D|----4------4--------4-|----4------4--------4-|
A|----------------------|----------------------|
E|----------------------|----------------------|

G|----------------------|----------------------|
D|-4----4-4----4--4-4---|-4----4-4----4--4-4---|
A|----4------4--------4-|----4------4--------4-|
E|----------------------|----------------------|

G|----------------1-3-|-9----9-9----9-9---|---|
D|-2-2-2-2-2-2-2------|----9------9-----9-|---|
A|--------------------|-------------------|-0-|
E|--------------------|-------------------|---|

(refrão 1) (03:24)

(refrão 2 - 2x) (03:45)
G|---------|----------1-2-2--1-|----------|
D|---------|-0--0-0-4----------|-2--2-2-2-|
A|----0--4-|-------------------|----------|
E|-2-------|-------------------|----------|
                                               
G|----------|------------|---------|---------|
D|-4--4-4-2-|-0---0-0--0-|---------|---------|
A|----------|---0--------|-0--0--0-|-7--7--7-|
E|----------|------------|---------|-0--0--0-|

(outro) (04:30)
G|-7---7-7---7-7-|-7---7-7---7-7-|-7---7-7---7-7-|
D|---7-----7-----|---7-----7-----|---7-----7-----|
A|---------------|---------------|---------------|
E|---------------|---------------|---------------|

G|-7---7-7---7-7-|-7---7-7---7-7-|-7---7-7---7-7-|-7-|
D|---7-----7-----|---7-----7-----|---7-----7-----|---|
A|---------------|---------------|---------------|---|
E|---------------|---------------|---------------|---|
Composição de Jason Wade
Colaboração e revisão:
  • Paulo Ricardo
429 exibições

0 comentários

Mostrar mais comentários

Conseguiu tocar?

0 Tocaram 0 Ainda não

Grave um vídeo tocando Blind e mande pra gente!

00:00 / 00:00
outros vídeos desta música
repetir qualidade Automático
Outros vídeos desta música
00:00 / 00:00
Automático

Cifra Club Pro

Aproveite o Cifra Club com benefícios exclusivos e sem anúncios
Cifra Club Pro
Aproveite o Cifra Club com benefícios exclusivos e sem anúncios
OK