Cifra Club

Aprenda

Everything

Lifehouse

Tab de baixo: Principal
Everything – Lifehouse

Introdução
G |-------------------| \
D |-------------------|  \ 4X
A |-----4~------------|  / 
E |---------4~----5~--| /

find me here			  |
speak to me			  |	
I want to feel you		  |
I need to hear you		  |   Verso 1 igual à Introdução
you are the light		  |
that is leading me		  |
to the place 		  |	
where I find peace again   |

...

G |-------------------|-------------------|--------|
D |-------------------|-------------------|--------|
A |-----4~------------|-----4~------------|--------|
E |---------4~----5~--|---------4~----5~--|--/17---|

...

you are the strength         | 
that keeps me walking        |
you are the hope             |	
that keeps me trusting       |    Verso 2: Verso 1
you are the life to my soul  |
you are my purpose           |
you are everything     	    |

Refrão

G |--------------|------------|--------------| \
D |--------------|------------|--------------|  \ 2X
A |--7~--6~--4~--|--7--6--4---|--4h7---------|  / 
E |--------------|------------|-------7---5--| /

...

G |-------------------|-------------------|--------|
D |-------------------|-------------------|--------|
A |-----4~------------|-----4~------------|--------|
E |---------4~----5~--|---------4~----5~--|--/17---|

...

you calm the storms              |
you give me rest                 |
you hold me in your hands        |
you won't let me fall            |    Verso 3: Verso 2
you still my heart               |
and you take my breath away      |
would you take me in             |
would you take me deeper now     |

Repete Refrão 2x

..(Bridge).. (começa batida)

 'Cause you're all I want you are all I need You are everything, Everything

G |-----------------------------------------------------------------| 
D |---------------4-4-4-4-4-4h7---------------7--------7-6----------| 4X
A |-------------------------------5-5-5-5----------7---------7-7-7-7|
E |-----------------------------------------------------------------|

Repete Refrão 3x

Volta dedilhado do violão

...

G |--------------------------------------| \
D |----------14--14----13----14----------|  \ 4X
A |-----4~-------------------------------|  /
E |---------------------4-----5----------| /
	   T	    T   T	    T     T
...

T: Tapping
Composição de Kate Holmes / Sarah Blackwood
Colaboração e revisão:
  • Larissa Alves
3.545 exibições

0 comentários

Mostrar mais comentários

Conseguiu tocar?

1 Tocaram 0 Ainda não

Grave um vídeo tocando Everything e mande pra gente!

00:00 / 00:00
outros vídeos desta música
repetir qualidade Automático
Outros vídeos desta música
00:00 / 00:00
Automático

Cifra Club Pro

Aproveite o Cifra Club com benefícios exclusivos e sem anúncios
Cifra Club Pro
Aproveite o Cifra Club com benefícios exclusivos e sem anúncios
OK