Cifra Club

Aprenda

First Time

Lifehouse

Cifra: Principal (violão e guitarra)
tom: E
Versão Acústica

Afinação: 1/2 Tom a baixo.


Intro:2x (Riff1)

RIFF 1 (Intro e Verso 1)
e|---0-0-0-0--0-0-0-0--|--0-0-0-0--0-0-0-0---|
B|---0-0-0-0--0-0-0-0--|--0-0-0-0--0-0-0-0---|
G|---9-9-9-9--9-9-9-9--|--9-9-9-9--9-9-9-9---|
D|---9-9-9-9--9-9-9-9--|--9-9-9-9--9-9-9-9---|
A|---0-0-0-0--x-x-x-x--|--x-x-x-x--6-6-7-7---|
E|------------7-7-7-7--|--9-9-9-9------------|
     Asus     Bsus        C#m7         E5

                                       RIFF 2 (PONTE)

e|---0-0-0-0--0-0-0-0--|--0-0-0-0--0-0-0-0---|---0-0-0-0--0-0-0-0--|--0-0-0-0--0-0-0-0---|
B|---0-0-0-0--0-0-0-0--|--0-0-0-0--0-0-0-0---|---0-0-0-0--0-0-0-0--|--0-0-0-0--0-0-0-0---|
G|---3-3-3-3--3-3-3-3--|--3-3-3-3--3-3-3-3---|---2-2-2-2--2-2-2-2--|--2-2-2-2--2-2-2-2---|
D|---4-4-4-4--4-4-4-4--|--4-4-4-4--4-4-4-4---|---2-2-2-2--2-2-2-2--|--2-2-2-2--2-2-2-2---|
A|---4-4-4-4--4-4-4-4--|--4-4-4-4--4-4-4-4---|---0-0-0-0--0-0-0-0--|--0-0-0-0--0-0-0-0---|
E|---2-2-2-2--2-2-2-2--|--2-2-2-2--2-2-2-2---|---------------------|---------------------|
    F#7sus                                       Asus 
     
                                       RIFF 3 (REFRÃO)

e|---0-0-0-0--0-0-0-0--|--0-0-0-0--0-0-0-0---|---0-0-0-0--0-0-0-0--|--0-0-0-0--0-0-0-0---|
B|---0-0-0-0--0-0-0-0--|--0-0-0-0--0-0-0-0---|---0-0-0-0--0-0-0-0--|--0-0-0-0--0-0-0-0---|
G|---9-9-9-9--9-9-9-9--|--9-9-9-9--9-9-9-9---|---3-3-3-3--3-3-3-3--|--2-2-2-2--4-4-4-4---|
D|---9-9-9-9--9-9-9-9--|--9-9-9-9--9-9-9-9---|---4-4-4-4--4-4-4-4--|--2-2-2-2--4-4-4-4---|
A|---7-7-7-7--7-7-7-7--|--6-6-6-6--6-6-6-6---|---4-4-4-4--4-4-4-4--|--0-0-0-0--2-2-2-2---|
E|---------------------|---------------------|---2-2-2-2--2-2-2-2--|---------------------|
     E5                   E/D#                   F#7sus               Asus     Bsus

                                        RIFF 4 (Verso3)

e|---------------------|---------------------|---------------------|---------------------|
B|---2-2-2-2--2-2-2-2--|--2-2-2-2--2-2-2-2---|---0-0-0-0--0-0-0-0--|--0-0-0-0--0-0-0-0---|
G|---3-3-3-3--3-3-3-3--|--3-3-3-3--3-3-3-3---|---4-4-4-4--4-4-4-4--|--4-4-4-4--4-4-4-4---|
D|---4-4-4-4--4-4-4-4--|--4-4-4-4--4-4-4-4---|---4-4-4-4--4-4-4-4--|--4-4-4-4--4-4-4-4---|
A|---4-4-4-4--4-4-4-4--|--4-4-4-4--4-4-4-4---|---2-2-2-2--2-2-2-2--|--2-2-2-2--2-2-2-2---|
E|---------------------|---------------------|---------------------|---------------------|
     F#7sus                                      Bsus


Verso1 (Riff1)

We're both looking for something
We've been afraid to find
It's easier to be broken
It's easier to hide

Ponte: Riff2

F#7sus
Looking at you, holding my breath
    Asus
For once in my life I'm scared to death
   F#7sus                   Asus  
I'm taking a chance letting you inside

Refrão (Riff3)

E5                         E/D#
I'm feeling alive all over again
     F#7sus               Asus        Bsus
As deep as the sky under my skin
        E5                         E/D#                    F#7sus     Asus   Bsus
Like being in love, she said, for the first time
   E5                            E/D#
Maybe I'm wrong, I'm feeling right
 F#7sus              Asus        Bsus
where I belong with you tonight
        E5                    E/D#                    F#7sus     Asus   Bsus
Like being in love to feel for the first time

Intro 2x

Verso2 (Riff1)

The world that I see inside you
Waiting to come to life
Waking me up to dreaming
Reality in your eyes

Ponte: Riff2

F#7sus
Looking at you, holding my breath
    Asus
For once in my life I'm scared to death
   F#7sus                   Asus  
I'm taking a chance letting you inside

Refrão (Riff3)

E5                         E/D#
I'm feeling alive all over again
     F#7sus                 Asus      Bsus
As deep as the sky under my skin
        E5                         E/D#                    F#7sus     Asus   Bsus
Like being in love, she said, for the first time
   E5                            E/D#
Maybe I'm wrong, I'm feeling right
 F#7sus              Asus       Bsus
where I belong with you tonight
        E5                    E/D#                    F#7sus 
Like being in love to feel for the first time

Verso3 (Riff4)

F#7sus
We're crashing
   Bsus
Into the unknown
    F#7sus
We're lost in this
         Bsus
But it feels like home

Refrão:1x

Final (Riff3)

      E5                        E/D#                   F#7sus    Asus   Bsus
Like being in love she said for the first time
     E5                         E/D#                   F#7sus    Asus   Bsus   E
Like being in love to feel for the first time


*Música massa.. é só ouvir  pra pegar a batida legal e tocar para as mulheres. ;D
Espero que tenham gostado.
David Rangel.
Composição de Jason Wade / Jude Cole
Colaboração e revisão:
  • David Rangel
18.494 exibições
    • ½ Tom
    • A
    • Bb
    • B
    • C
    • Db
    • D
    • Eb
    • E
    • F
    • F#
    • G
    • Ab
  • Adicionar à lista

    0 comentários

    Ver todos os comentários

    Conseguiu tocar?

    0 Tocaram 1 Ainda não

    Grave um vídeo tocando First Time e nos envie!

    00:00 / 00:00
    outros vídeos desta música
    repetir qualidade Automático
    Outros vídeos desta música
    00:00 / 00:00
    Automático

    Cifra Club Pro

    Aproveite o Cifra Club com benefícios exclusivos e sem anúncios
    Cifra Club Pro
    Aproveite o Cifra Club com benefícios exclusivos e sem anúncios
    OK