Cifra Club

Aprenda

Trying

Lifehouse

Tab de baixo: Principal
(intro) (00:14) (verso 1)

--7----5----0----2----3----------------2------|
----------------------------------------------|
----------------------------------------------|
----------------------------------------------|

--3-------------2-----------------------------|
----------------------------------------------|
----------------------------------------------|  
----------------------------------------------|

(refrão)
----------------------------------------------|
----------------------------------------------|
----3--------------------1----------0---------|
--------------3-------------------------------|

(verso 2) Mesmo do que o verso 1

(refrão)

(ponte) (1:53)
--7--5--3--2-------7-3-2-------7-3-2----------|
----------------------------------------------|
----------------------------------------------|
----------------------------------------------|

(ponte 2 - 2x)
----------------------------------------------|
---2------------------3-----------------------|
-----------0----------------------------3-----| 
----------------------------------------------|
   (well   i haven't figuerd out quite yet)

----------------------------------------------|
----------3-----------------5-----------------|
----------------------------------------------|
----------------------------------------------|
(I'll be one step back to  you..)

----------5---------3--------2----------------|
--3-------------------------------------------| (2x)
----------------------------------------------|
----------------------------------------------|
Composição de Jason Wade
Colaboração e revisão:
  • Paulo Ricardo
83 exibições

0 comentários

Mostrar mais comentários

Conseguiu tocar?

0 Tocaram 0 Ainda não

Grave um vídeo tocando Trying e mande pra gente!

00:00 / 00:00
outros vídeos desta música
repetir qualidade Automático
Outros vídeos desta música
00:00 / 00:00
Automático

Cifra Club Pro

Aproveite o Cifra Club com benefícios exclusivos e sem anúncios
Cifra Club Pro
Aproveite o Cifra Club com benefícios exclusivos e sem anúncios
OK