Cifra Club

Right Above It

Lil Wayne

Cifra: Principal (violão e guitarra)
exibições 868
Tom: F# (forma dos acordes no tom de D) Capotraste na 4ª casa
 Violão 1:

 Bm A G D C#/D x2

 Violão 2:
e|---------------|--------------|--------------|-------------|--------------|
B|------9-11-----|-----9-11-----|-----9-11-----|-----9-11----|------9-9-----|
G|------------11-|-----------11-|-----------11-|----------11-|---11---------|
D|---------------|--------------|--------------|-------------|--------------|
A|---------------|--------------|--------------|-------------|--------------|
E|---------------|--------------|--------------|-------------|--------------| (2x)

    Bm
    Now tell me how you love it
           A
You know you at the top when only heaven’s right above it
       G
We on, It’s Young Money, motherfucker
             D5                                       C#/D
If you ain’t runnin’ wit it, run from it, motherfucker, all right
    Bm
    Now somebody show some money in this bitch
            A                                                 G
And I got my B’s with me like some honey in this bitch, ya dig?
                                                                D             C#/D
I got my gun in my boo purse, And I don’t bust back, because I shoot first...
   
Outro:
 Relativo ao capotraste:
e|------7-5-5-2-2-0-0---|
B|--------------------3-|
G|----------------------|
D|----------------------|
A|----------------------|
E|----------------------|

Outro:
e|------7-5-5-2-2-0-0---|
B|--------3-3-3-3-3-3-3-|
G|------7---------------|
D|----------------------|
A|----------------------|
E|----------------------|
Acordes para:
    Colaboração e revisão:
    • Pedro Rodrigues
    • Carlos Magno
    • Enio Macedo

    0 comentários

    mostrar mais comentários

    Conseguiu tocar?

    0 tocaram 0 ainda não

    Grave um vídeo tocando Right Above It e mande pra gente!

    00:00 / 00:00
    outros vídeos desta música
    repetir qualidade Automático
    Outros vídeos desta música
    00:00 / 00:00
    Automático
    OK