Cifra Club

Aprenda

Boiler

Limp Bizkit

Cifra: Principal (violão e guitarra)
tom: G
^ = wiggle whammy bar
~ = feedback
b = bend
x = muted note
> = push whammy bar down for higher noise (tighten strings)
< = push whammy bar down for lower noise (loosen strings)
z = Pick Scratch down string

 Intro (with distortion and volume swell
|-----------------|--------------|-------------|----------|
|--------------6--|--------------|-------------|----------|
|--7--9--11----5--|--7--11----5--|--7--11--17--|--7----9--|
|--x--x--x-----x--|--x--x-----x--|--x--x---x---|--x----x--|
|--5--7--9-----3--|--5--9-----3--|--5--9---15--|--5----7--|
|-----------------|--------------|-------------|----------|

 Chorus
|--------------------------|    |--------------------------|--------------------------|
|--------------------------|    |--------------------------|--------------------------|
|--9-99-9-99b-99--9-9b-9b--| x2 |--5-55-5-55b-55--5-5b-5b--|--7-77-7-77b-77--7-7b-7b--|
|--9-99-9-9x--99--9-x--x---|    |--5-55-5-5x--55--5-x--x---|--7-77-7-7x--77--7-x--x---|
|--7-77-7-77b-77--7-7b-7b--|    |--3-33-3-33b-33--3-3b-3b--|--5-55-5-55b-55--5-5b-5b--|
|--------------------------|    |--------------------------|--------------------------|

 Verse (w/ Delay) 
|-------------------------------------------------------|
|-------------------------------------------------------|
|------9-9--------9-9--9-7---------9-9--7-------9-9--7--|
|----------7--------------------------------------------|
|--7-7--------5-5----5---------------------5-5----------|
|--------------------------10-10------------------------|

 Bridge 
|-------------------------------------------|
|-------------------------------------------|
|-------------------------------------------|
|------------------------------9----~~~~~---|
|--0---~~~~~~~~~~~~~~----------7-~~~~~~~~~--|
|--0-----~~~~~~~----------------------------|

|--------------------------------------------|
|--------------------------------------------|
|--------------------------------------------|
|---------------------------------9----------|
|--~~~~~~~-x---------~~~~~~~------7-~~~~~~~--|
|----------10-----~~~~--------10-------------|
           ^                  ^
|--------------------------------|
|--------------------------------|
|----------------------9---------|
|----------------------x---------|
|------~~~~-----~~~~~--7~~~~~~~--|
|--10-~~----10-------------------|
   ^        ^

 Outro/Last Chorus
|---------------------------------------------|
|---------------------------------------------|
|----9-----9b-9>b-----9-----9-9b---7---7-7---7--
Composição de Limp Bizkit
7.997 exibições
    • ½ Tom
    • A
    • Bb
    • B
    • C
    • Db
    • D
    • Eb
    • E
    • F
    • F#
    • G
    • Ab
  • Adicionar à lista

    0 comentários

    Ver todos os comentários

    Conseguiu tocar?

    0 Tocaram 0 Ainda não

    Grave um vídeo tocando Boiler e nos envie!

    00:00 / 00:00
    outros vídeos desta música
    repetir qualidade Automático
    Outros vídeos desta música
    00:00 / 00:00
    Automático

    Cifra Club Pro

    Aproveite o Cifra Club com benefícios exclusivos e sem anúncios
    Cifra Club Pro
    Aproveite o Cifra Club com benefícios exclusivos e sem anúncios
    OK