Cifra Club

Aprenda

Drown

Limp Bizkit

Tab de baixo: Principal
Intro:
G|-------------------------------|
D|-------------------------------|
A|------4-------4-------4--2---4-|
E|-----4---4---4---4---4--------4|
B|--4-------4-------4------------|

Verse:
G|-------------------------------------------------------------|
D|-------------------------------------------------------------|
A|----4-------4-------4--2---4-----4-------4-------4--2---4----|    
E|---4---4---4---4---4--------4---4---4---4---4---4--------4---|
B|4-------4-------4------------4-------4-------4------------4--|

Chorus:
G|------------------------|---------------------|
D|------------------------|---------------------|
A|------------------------|---------------------|  2x
E|--5--5-5-5---5-5-55--5--|---------------------|
B|------------------------|--5--5-5-5---5-5-55--|

Intro:
G|-------------------------------|
D|-------------------------------|
A|------4-------4-------4--2---4-|
E|-----4---4---4---4---4--------4|
B|--4-------4-------4------------|

Verse:
G|-------------------------------------------------------------|
D|-------------------------------------------------------------|
A|----4-------4-------4--2---4-----4-------4-------4--2---4----|    
E|---4---4---4---4---4--------4---4---4---4---4---4--------4---|
B|4-------4-------4------------4-------4-------4------------4--|

Chorus:
G|------------------------|---------------------|
D|------------------------|---------------------|
A|------------------------|---------------------|  2x
E|--5--5-5-5---5-5-55--5--|---------------------|
B|------------------------|--5--5-5-5---5-5-55--|

Ending:
G|---------------------------------------------------------------------|
D|---------------------------------------------------------------------|
A|--4----4----4----4---------------------------------------------------|  2x
E|----------------------4---4---4---4---2---2---2---2---6---6---4---4--|
B|---------------------------------------------------------------------|
Compositor não encontrado.
Colaboração e revisão:
  • Pedro Rodrigues
80 exibições

0 comentários

Ver todos os comentários

Conseguiu tocar?

0 Tocaram 0 Ainda não

Grave um vídeo tocando Drown e nos envie!

00:00 / 00:00
Outros vídeos desta música
Repetir Qualidade Automático
Outros vídeos desta música
00:00 / 00:00
Automático

Cifra Club Pro

Aproveite o Cifra Club com benefícios exclusivos e sem anúncios
Cifra Club Pro
Aproveite o Cifra Club com benefícios exclusivos e sem anúncios
OK