Cifra Club

Gold Cobra

Limp Bizkit

Cifra: Principal (violão e guitarra)
exibições 3.329
Tom: C
Afinação: C# F# B E G# C# 

C|--------------------------------------| 
G|--------------------------------------| 
E|--------------------------------------| 
B|--------------------------------------| 
F|-------5/7-7-5/7-7777-5/7-7-----------| 
C|--0-0----------------------------------| 

C|---------------------------------------|-----------------------------------------| 
G|---------------------------------------|-----------------------------------------| 
E|---------------------------------------|-----------------------------------------| 
B|-------h-h----2-2-----2-2----2-2-------|-------5--5-------5-5-5-5-5--------------| 
F|------h-h----2-2-----2-2----2-2--------|-------5--5------5-5-5-5-5---------------| 
C|--0---h-h----0-0-----0-0----0-0--------|-------3--3-------3-3-3-3-3--------------| 

C|--------------------------------------------------------------------------------­---| 
G|-----------------------------------------------------------------------------------| 
E|-----------------------------------------------------------------------------------| 
B|----2-2----2-2-----2-4-5-----5-5-----3-3-----3-3------3-3/10---10------------------| 
F|----2-2----2-2-----2-4-5-----5-5-----3-3-----3-3------3-3/10---10------------------| 
C|----0-0----0-0----0-2-3----3-3------1-1-----1-1------1-1/8------8------------------| 

- let ring 
C|------------------------------| 
G|------------10---9------------| 
E|--------9---------------------| 
B|------------------------------| 
F|------------------------------| 
C|------------------------------| 

wakin up aggravated
stupid shit man i hate it
bitches lyin bitches cryin
suicidal get in line
gettin mine bouncin freaks
loosin sleep countin sheep
absolute cash and loot
men in black packin heat
born n blazin rotten raisin
fingers up time to waive em
show these players playin that they better get there ass to prayin
there won't be nuttin but dice after the cut in the gut
? like em the fish there gonna wish they never pushed my button
the door is shuttin and a knife will do you no good
you gettin nuttin while i rock here in hollywood
i'll tell you somethin else you can take it to the bank
i don't give a fuck what none of y'all people think

holdin the gold it's so gold it's so golden y'all
the golden cobra
holdin the gold it's so gold it's so golden y'all
the golden cobra
holdin the gold it's so gold it's so golden y'all
the golden cobra
holdin the gold it's so gold it's so golden y'all
the golden cobra

feelin korn going blind
free as hell doin time
i'm insane can't complain
flush you turds down the drain
down the hatch throwin craps
throwin matches on the gas
check the match check the will
check the ride payin bills
burnin mouths wanna smile
if you're feelin versatile
versus why flippin bitches
grindin trucks skatin ditches
hatin all the harley hatin knife is slicin shit like bacon
sick and tired you is fired
i'm the truth and you's the liar
the door is shuttin and a knife will do you no good
you gettin nuttin while i rock here in hollywood
i'll tell you something else you can take it to the bank
i don't give a fuck what none ya'll people think

holdin the gold it's so gold it's so golden y'all
the golden cobra
holdin the gold it's so gold it's so golden y'all
the golden cobra
holdin the gold it's so gold it's so golden y'all
the golden cobra
holdin the gold it's so gold it's so golden y'all
the golden cobra

oh ya listen what i'm tellin you(i'm tellin you)
there's only one king on this hill it sure as hell aint you

holdin the gold it's so gold it's so golden y'all
the golden cobra
holdin the gold it's so gold it's so golden y'all
the golden cobra
holdin the gold it's so gold it's so golden y'all
the golden cobra
holdin the gold it's so gold it's so golden y'all
the golden cobra
  
Acordes para:
    Composição: Fred Durst / Limp Bizkit Colaboração e revisão:
    • Nascimento Silva
    • Lucas Oliveira

    0 comentários

    mostrar mais comentários

    Conseguiu tocar?

    1 tocaram 0 ainda não

    Grave um vídeo tocando Gold Cobra e mande pra gente!

    00:00 / 00:00
    outros vídeos desta música
    repetir qualidade Automático
    Outros vídeos desta música
    00:00 / 00:00
    Automático
    OK