Cifra Club

Aprenda

Hate Me

Limp Bizkit

Cifra: Principal (violão e guitarra)
tom: F#
Transcribed by: Akavat W.


tune guitar to C# F# B E G# C# (low to high) Listen to the song for 
timing.

P = pull off

   Intro and some part in the first verse
-|----------------------------------------------------------------------------
-|----------------------------------------------------------------------------
-|----------------------------------------------------------------------------
-|---------7-9p-7-------------------------------------------------------------
-|-9-9-9-9--------9-9-9-9-9-7-8-9---------------------------------------------
-|----------------------------------------------------------------------------
                                                                             
   Verses
-|-17p-14-----17p-14-----17p-14-----17p-14------------------------------------
-|--------14---------13---------12---------15-15-15-14-14---------------------
-|----------------------------------------------------------------------------
-|----------------------------------------------------------------------------
-|----------------------------------------------------------------------------
-|----------------------------------------------------------------------------
                                                                             
   Riff before chorus
-|----------------------------------------------------------------------------
-|----------------------------------------------------------------------------
-|----------------------------------------------------------------------------
-|----------------------------------------------------------------------------
-|----------------0-2---------------------------------------------------------
-|-2--0-2-0-2-0-2-----0-2-0-2-0-2-0-2-0-1-------------------------------------
                                                                              
   Heavy riff on chorus (don't forget to palm mute) *M stands for PALM 
MUTE
-|----------------------------------------------------------------------------
-|----------------------------------------------------------------------------
-|----------------------------------------------------------------------------
-|------------------4---------------------------------------------------------
-|-4----4---4---4-0-2---4---4---4---4---3-------------------------------------
-|-2--0-2-0-2-0-2-----0-2-0-2-0-2-0-2-0-1-------------------------------------
        M   M   M       M   M   M   M                                         
   After the 2nd chorus play this…  
-|----------------------------------------------------------------------------
-|----------------------------------------------------------------------------
-|----------------------------------------------------------------------------
-|-------4--------------------------------------------------------------------
-|-4-4-0-2--4-4-0-3-----------------------------------------------------------
-|-2-2-0----2-2-0-1-----------------------------------------------------------
                                                                              

-|--------------------|-------------------------------------------------------
-|--------------------|-------------------------------------------------------
-|--------------------|-------------------------------------------------------
-|-----7-9p-7---------|-----7-9p-7--------------------------------------------
-|-9-9--------9-9-7-8-|-9-9--------9-9-7-8------------------------------------
-|--------------------|-------------------------------------------------------
  |M-----------------|  use distortion ....                                    

-There it is my first tab ever!!! Corrections are welcome.
Limp Bizkit RULES Wes Borland kicks ass!!!
4.992 exibições
    • ½ Tom
    • A
    • Bb
    • B
    • C
    • Db
    • D
    • Eb
    • E
    • F
    • F#
    • G
    • Ab
  • Adicionar à lista

    0 comentários

    Ver todos os comentários

    Conseguiu tocar?

    0 Tocaram 0 Ainda não

    Grave um vídeo tocando Hate Me e nos envie!

    00:00 / 00:00
    outros vídeos desta música
    repetir qualidade Automático
    Outros vídeos desta música
    00:00 / 00:00
    Automático

    Cifra Club Pro

    Aproveite o Cifra Club com benefícios exclusivos e sem anúncios
    Cifra Club Pro
    Aproveite o Cifra Club com benefícios exclusivos e sem anúncios
    OK