Cifra Club

My Way

Limp Bizkit

Cifra: Principal
exibições 36.916
Tom: E Afinação: Db Gb Cb E G Db

Intro/Verso:
|------------|-----------------------|
|------------|-5---------------------|
|-1----------|------------4----------|
|------------|-----------------------|
|------------|-3---------------------|
|-0----------|------------3----------|

Pre-Chorus:
|-------------2-/-5-----5^4-----4-|--------------------3^0-|
|---------------------------------|-------5----------------|
|-----1---------------------------|------------------4-----|
|---------------------------------|------------------------|
|---------------------------------|-3--3-----3^0-----------|
|-0-------0------------------0----|--------------3-3-------|

Chorus:
|-4-----4--4---4-----4--4---4---4--5-|
|------------------------------------|
|----------------------------------4-|
|-2-----2--2---2-----2--2---2---2----|
|-2-----2--2---2-----2--2---2---2--5-|
|-0-----0--0---0-----0--0---0---0--3-|

|--5-----5--5---7-----7--7---7---4---|
|------------------------------------|
|--4-----4--4---4-----4--4---4-------|
|--------------------------------2---|
|--5-----5--5---5-----5--5---5---2---|
|--3-----3--3---3-----3--3---3---0---|

|-4-----4--4---4-----4--4---4---4--5-|
|------------------------------------|
|----------------------------------4-|
|-2-----2--2---2-----2--2---2---2----|
|-2-----2--2---2-----2--2---2---2--5-|
|-0-----0--0---0-----0--0---0---0--3-|

|--5-----5--5---0-----0--0-----0---4-|
|---------------0-----0--0-----0-----|
|--4-----4--4---4-----4--4-----4-----|
|---------------5-----5--5-----5---2-|
|--5-----5--5---5-----5--5-----5---2-|
|--3-----3--3---3-----3--3-----3---0-|

|-4-----4--4---4-----4--4---4---4--5-|
|------------------------------------|
|----------------------------------4-|
|-2-----2--2---2-----2--2---2---2----|
|-2-----2--2---2-----2--2---2---2--5-|
|-0-----0--0---0-----0--0---0---0--3-|

|-5-----5--5---7-----7--7---7---4----|
|------------------------------------|
|-4-----4--4---4-----4--4---4--------|
|-------------------------------2----|
|-5-----5--5---5-----5--5---5---2----|
|-3-----3--3---3-----3--3---3---0----|

|-4-----4--4---4-----4--4---4---4--5-|-5---5--5--5---0-----|
|------------------------------------|---------------0-----|
|----------------------------------4-|-4---4--4--4---4-----|
|-2-----2--2---2-----2--2---2---2----|---------------5-----|
|-2-----2--2---2-----2--2---2---2--5-|-5---5--5--5---5-----|
|-0-----0--0---0-----0--0---0---0--3-|-3---3--3--3---3-----|

|------------------------------|---------------------------|
|------------------------------|---------------------------|
|------------------------------|---------------------------|
|--------------------------5---|-5--5--x---5---5-5-------5-|
|-2--2---2--2---x---x-x----5---|-5--5--x---5---5-5-------5-|
|-0--0---0--0---x---x-x-0--3^0-|-3--3--x-0-3^0-3-3--0--0-3-|

|--------------------------------|
|--------------------------------|
|--------------------------------|
|----------------------------5---|
|-2--2---2---2---x---x-x--2--5---|
|-0--0---0---0---x---x-x--0--3^0-|

|--------------------------------|-------------------------|
|--------------------------------|-------------------------|
|--------------------------------|-------------------------|
|-5--5--x-----5---5-5---------5--|---------------------5---|
|-5--5--x-----5---5-5---------5--|-2-2--2-2--x-x-x-x---5---|
|-3--3--x--0--3^0-3-3--0---0--3--|-0-0--0-0--x-x-x-x-0-3^0-|

|---------------------------|------------------------------|
|---------------------------|------------------------------|
|---------------------------|------------------------------|
|-5--5--x---5---5--------5--|--------------------------5---|
|-5--5--x---5---5--------5--|-2--2---2---2---x-x-x-x---5---|
|-3--3--x-0-3^0-3---0--0-3--|-0--0---0---0---x-x-x-x-0-3^0-|

 (solo):
|------------------------|------------------------|
|------------------------|------------------------|
|-------6--6-------------|-------9--9-------------|
|----4--------------7--7-|----7--------------9--9-|
|-2--------------5-------|-5--------------7-------|
|-------------3----------|-------------5----------|

|-------------------------------|--------------------------|
|-------------------------------|--------------------------|
|-------11---11-----------------|-------14--14-------------|
|----9-------------------12--12-|----12--------------14-14-|
|-7-----------------10----------|-10--------------12-------|
|----------------8--------------|--------------10----------|

Outro:
|-4-------------------|-5-----------7-----------|-4--------|
|---------------------|-------------------------|----------|
|---------------------|-4-----------4-----------|----------|
|-2-------------------|-------------------------|-2--------|
|-2-------------------|-5-----------5-----------|-2--------|
|-0-------------------|-3-----------3-----------|-0--------|

|-5----------------0-------------|
|------------------0-------------|
|-4----------------4-------------|
|------------------5-------------|
|-5----------------5-------------|
|-3----------------3-------------|
Acordes para:

    0 comentários

      mostrar mais comentários

      Conseguiu tocar?

      3tocaram0ainda não

      Grave um vídeo tocando My Way e mande pra gente!

      00:00 / 00:00
      outros vídeos desta música
      repetirqualidadeautomática
      Outro vídeos desta música
        00:00 / 00:00
        automática
        OK