Cifra Club

Aprenda

Nookie

Limp Bizkit

Cifra: Principal (violão e guitarra)
tom: G
INTRO: ( sin distorsión)

|-----------------------------------------------|
|-----------------------------------------------|
|-----------------------------------------------|  
|-1/12--0---17------1/12--0---17--0--1/12---17--|
|-1/12--0---18------1/12--0---18--0--1/12---18--|
|-1/12--0---15------1/12--0---15--0--1/12---15--|

         
|-----------------------------|
|-----------------------------|
|-----------------------------|  
|-1/12--0---17--0--1/12---17--| ( x3)
|-1/12--0---18--0--1/12---18--|
|-1/12--0---15--0--1/12---15--|


ESTRIBILLO: (con distorsión)

|-----------------------------------------------|
|-----------------------------------------------|
|-----------------------------------------------|  
|-1/12--0---17------1/12--0---17--0--1/12---17--|
|-1/12--0---X-------1/12--0---X---0--1/12---X---|
|-1/12--0---15------1/12--0---15--0--1/12---15--|

|-----------------------------|
|-----------------------------|
|-----------------------------|  
|-1/12--0---17--0--1/12---17--| ( x8)
|-1/12--0---X---0--1/12---X---|
|-1/12--0---15--0--1/12---15--|


ESTROFA 1: ( sin ditorsión)

|----------------------|
|----------------------|
|----------------------|
|-------5-4------------| ( x8)
|-----------3----------|
|-3-3---------3-4-3----| 

ESTROFA 2: ( sin distorsión)

|---------------------------------|
|---------------------------------|
|---------------------------------|
|-----16---16---16---16----16/16--| ( x3)
|-----X----X----X----X-----X-/X---|
|-0---14-0-14-0-14-0-14-0--14/15--| 

ESTROFA 1: ( sin ditorsión)

|----------------------|
|----------------------|
|----------------------|
|-------5-4------------| ( x8)
|-----------3----------|
|-3-3---------3-4-3----| 

ESTRIBILLO: (con distorsión)

|-----------------------------------------------|
|-----------------------------------------------|
|-----------------------------------------------|  
|-1/12--0---17------1/12--0---17--0--1/12---17--|
|-1/12--0---X-------1/12--0---X---0--1/12---X---|
|-1/12--0---15------1/12--0---15--0--1/12---15--|

|-----------------------------|
|-----------------------------|
|-----------------------------|  
|-1/12--0---17--0--1/12---17--| ( x8)
|-1/12--0---X---0--1/12---X---|
|-1/12--0---15--0--1/12---15--|

ESTROFA 1: ( sin ditorsión)

|----------------------|
|----------------------|
|----------------------|
|-------5-4------------| ( x8)
|-----------3----------|
|-3-3---------3-4-3----| 

ESTROFA 2: ( sin distorsión)

|---------------------------------|
|---------------------------------|
|---------------------------------|
|-----16---16---16---16----16/16--| ( x3)
|-----X----X----X----X-----X-/X---|
|-0---14-0-14-0-14-0-14-0--14/15--| 

ESTRIBILLO: (con distorsión)

|-----------------------------------------------|
|-----------------------------------------------|
|-----------------------------------------------|  
|-1/12--0---17------1/12--0---17--0--1/12---17--|
|-1/12--0---X-------1/12--0---X---0--1/12---X---|
|-1/12--0---15------1/12--0---15--0--1/12---15--|

|-----------------------------|
|-----------------------------|
|-----------------------------|  
|-1/12--0---17--0--1/12---17--| ( x8)
|-1/12--0---X---0--1/12---X---|
|-1/12--0---15--0--1/12---15--|

ESTROFA 3: (sin distorsión)

|-------------------------------------------------------------------|
|-------------------------------------------------------------------|
|-------------------------------------------------------------------|
|-------------------------------------------------------------------| ( x4)
|-------------------------------------------------------------------|
|-0-2-2-2-2-2/3--0-2-2-2-2-2/3--0-2-2-2-2-2/3----00000000-55555555--|

ESTROFA 4: ( con distorsión)

|-------------------------------|
|-------------------------------|
|-------------------------------|
|---16---16---16---16----16/16--| ( x3)
|---X----X----X----X-----X-/X---|
|-0-14-0-14-0-14-0-14-0--14/15--|

|---------------------|
|---------------------|
|---------------------|
|---16---16-16----16--| 
|---X----X--X-----X---|
|-0-14---14-14--0-14--|

ESTROFA 4: ( con distorsión)

|-------------------------------|
|-------------------------------|
|-------------------------------|
|---16---16---16---16----16/16--| ( x3)
|---X----X----X----X-----X-/X---|
|-0-14-0-14-0-14-0-14-0--14/15--|

|---------------------|
|---------------------|
|---------------------|
|---16---16-16----16--| 
|---X----X--X-----X---|
|-0-14---14-14--0-14--|

ESTROFA 4: ( con distorsión)

|-------------------------------|
|-------------------------------|
|-------------------------------|
|---16---16---16---16----16/16--| ( x3)
|---X----X----X----X-----X-/X---|
|-0-14-0-14-0-14-0-14-0--14/15--|

|---------------------|
|---------------------|
|---------------------|
|---16---16-16----16--| 
|---X----X--X-----X---|
|-0-14---14-14--0-14--|

ESTRIBILLO: (con distorsión)

|-----------------------------------------------|
|-----------------------------------------------|
|-----------------------------------------------|  
|-1/12--0---17------1/12--0---17--0--1/12---17--|
|-1/12--0---X-------1/12--0---X---0--1/12---X---|
|-1/12--0---15------1/12--0---15--0--1/12---15--|

|-----------------------------|
|-----------------------------|
|-----------------------------|  
|-1/12--0---17--0--1/12---17--| ( x8)
|-1/12--0---X---0--1/12---X---|
|-1/12--0---15--0--1/12---15--|

ESTROFA 5:( sin distorsión)

|-------------------------------------------------|
|-------------------------------------------------|
|-------------------------------------------------|
|---16---16---16---16----16/16----16-----16---16--| ( Terminar con esta estrofa)
|---X----X----X----X-----X-/X-----X------X----X---|
|-0-14-0-14-0-14-0-14-0--14/15--0-14-----14-0-14--|
Composição de Fred Durst / John Otto / Sam Rivers / Wes Borland
Colaboração e revisão:
  • marcelo
5.117 exibições
    • ½ Tom
    • A
    • Bb
    • B
    • C
    • Db
    • D
    • Eb
    • E
    • F
    • F#
    • G
    • Ab
  • Adicionar à lista

    0 comentários

    Ver todos os comentários

    Conseguiu tocar?

    0 Tocaram 0 Ainda não

    Grave um vídeo tocando Nookie e nos envie!

    00:00 / 00:00
    outros vídeos desta música
    repetir qualidade Automático
    Outros vídeos desta música
    00:00 / 00:00
    Automático

    Cifra Club Pro

    Aproveite o Cifra Club com benefícios exclusivos e sem anúncios
    Cifra Club Pro
    Aproveite o Cifra Club com benefícios exclusivos e sem anúncios
    OK