Cifra Club

Take a Look Around

Limp Bizkit

Cifra: Principal (violão e guitarra)
Tom: A#
Afinação: Db  Ab  Db  Gb  Bb  Eb

Introdução:

E|-----------------------------------------------------|
B|-----------------------------------------------------|
G|-----------------------------------------------------|   (8x)
D|------------------5--7p5-----------------------------|
A|-7---7---7---7--7---------7---7---7---7--7--5--6-----|
E|-----------------------------------------------------|


Primeira Estrofe:

E|-15-12------15-12------15-12------15-12--------------|
B|-------12-------------------------------13--13--12-12|
G|------------------15---------14----------------------|   (2x)
D|-----------------------------------------------------|
A|-----------------------------------------------------|
E|-----------------------------------------------------|

All the teachin' in the world today
All the little girls 
Fillin' up the world today
When the good comes to bad 
The bad comes to good
But I'm gonna live a life 
Like I should (like I should)
Now all the critics wanna hit it
Shit can ever did it
just Because they don't get it
But I'll stay fitted
New era committed
Now this red cap
Gets a rap from his critics


Segunda Estrofe:

E|-----------------------------------------------------|
B|-----------------------------------------------------|
G|-----------------------------------------------------|   (2x)
D|------------------5--7p5-----------------------------|
A|-7---7---7---7--7---------7---7---7---7--7--5--6-----|
E|-----------------------------------------------------|

Do we always gotta cry? (gotta cry)
Do we always gotta live 
Inside a lie (inside a lie)
Life's just a blast
It's Movin really fast
Better stay on top
Or life will kick you in the ass


Terceira Estrofe:

E|-15-12------15-12------15-12------15-12--------------|
B|-------12-------------------------------13--13--12-12|
G|------------------15---------14----------------------|   (2x)
D|-----------------------------------------------------|
A|-----------------------------------------------------|
E|-----------------------------------------------------|

Follow me into a solo
Remember that, kid
So what you wanna do?
where you gonna run
When your starin down the cable
Of a mic pointed 
At your grill like a gun
Limp Bizkit is rockin the set
Its like Russian Roulette
When your placin' your bet
So don't be upset
when your broke
And you're done
'cause im gonna be the one
'till I jet


Pré-Refrão:

E|-----------------------------------------------------|
B|-----------------------------------------------------|
G|-----------------------------------------------------|   (4x)
D|-----------------------------------------------------|
A|-----------------------------------------------------|
E|-0h2~-0h2~-0h2~-0h2~-5--7--0h2~-0h2~-0h2~-0h2~-0--1--|

I know why you wanna hate me
I know why you wanna hate me
I know why you wanna hate me
'cause hate is all 
That the world has even seen lately

I know why you wanna hate me
I know why you wanna hate me
Now I know why you wanna hate me
'cause hate is all 
The world that's even seen lately


Refrão:

E|-----------------------------------------------------|
B|-----------------------------------------------------|
G|-----------------------------------------------------|   (2x)
D|-0-2--0-2--0-2--0-2--5--7--0-2--0-2--0-2--0-2--0--1--|
A|-0-2--0-2--0-2--0-2--5--7--0-2--0-2--0-2--0-2--0--1--|
E|-0-2--0-2--0-2--0-2--5--7--0-2--0-2--0-2--0-2--0--1--|

Now you wanna hate me
'cause hate is all 
The world that's even seen lately

E|-----------------------------------------------------|
B|-----------------------------------------------------|
G|-----------------------------------------------------|   (2x)
D|-x-2--x-2--x-2--x-2--5--7--x-2--x-2--x-2--x-2--0--1--|
A|-x-2--x-2--x-2--x-2--5--7--x-2--x-2--x-2--x-2--0--1--|
E|-x-2--x-2--x-2--x-2--5--7--x-2--x-2--x-2--x-2--0--1--|

Now you wanna hate me
'cause hate is all 
The world that's even seen lately


Quarta Estrofe:

E|-----------------------------------------------------|
B|-----------------------------------------------------|
G|-----------------------------------------------------|   (2x)
D|------------------5--7p5-----------------------------|
A|-7---7---7---7--7---------7---7---7---7--7--5--6-----|
E|-----------------------------------------------------|

E|-15-12------15-12------15-12------15-12--------------|
B|-------12-------------------------------13--13--12-12|
G|------------------15---------14----------------------|   (2x)
D|-----------------------------------------------------|
A|-----------------------------------------------------|
E|-----------------------------------------------------|

Does anybody really know the secret
Or the combination for this life 
And where to keep it
Its kinda sad when 
You don't know the meaning
But everything happens 
For a reason (metaphor)
I don't even know what I should say
'cause I'm an idiot
A loser, microphone abuser
I analyze every second I exist
Beating on my mind 
Every second with my fist


Quinta Estrofe:

E|-15-12------15-12------15-12------15-12--------------|
B|-------12-------------------------------13--13--12-12|
G|------------------15---------14----------------------|   (2x)
D|-----------------------------------------------------|
A|-----------------------------------------------------|
E|-----------------------------------------------------|

Everybody wanna run
Everybody wanna hide from the gun 
You can take this ride 
Through this life if you want
But you can't take 
The edge off the knife 
And now you want your money back
But your denied 
'cause your brains fried from the sack
And there ain't nothing I can do
'cause life is a lesson you learn 
It when your through


Pré-Refrão:

E|-----------------------------------------------------|
B|-----------------------------------------------------|
G|-----------------------------------------------------|   (4x)
D|-----------------------------------------------------|
A|-----------------------------------------------------|
E|-0h2~-0h2~-0h2~-0h2~-5--7--0h2~-0h2~-0h2~-0h2~-0--1--|

I know why you wanna hate me
I know why you wanna hate me
I know why you wanna hate me
'cause hate is all 
The world has even seen lately
I know why you wanna hate me
I know why you wanna hate me
Now I know why you wanna hate me
'cause hate is all 
The world that's even seen lately


Refrão:

E|-----------------------------------------------------|
B|-----------------------------------------------------|
G|-----------------------------------------------------|   (2x)
D|-0-2--0-2--0-2--0-2--5--7--0-2--0-2--0-2--0-2--0--1--|
A|-0-2--0-2--0-2--0-2--5--7--0-2--0-2--0-2--0-2--0--1--|
E|-0-2--0-2--0-2--0-2--5--7--0-2--0-2--0-2--0-2--0--1--|

Now you wanna hate me
'cause hate is all 
The world that's even seen lately

E|-----------------------------------------------------|
B|-----------------------------------------------------|
G|-----------------------------------------------------|   (2x)
D|-x-2--x-2--x-2--x-2--5--7--x-2--x-2--x-2--x-2--0--1--|
A|-x-2--x-2--x-2--x-2--5--7--x-2--x-2--x-2--x-2--0--1--|
E|-x-2--x-2--x-2--x-2--5--7--x-2--x-2--x-2--x-2--0--1--|

Now you wanna hate me
'cause hate is all 
The world that's even seen lately

E|-----------------------------------------------------|
B|-----------------------------------------------------|
G|-----------------------------------------------------|   (2x)
D|-2---2--5--7--2---2--0--1----------------------------|
A|-2---2--5--7--2---2--0--1----------------------------|
E|-2---2--5--7--2---2--0--1----------------------------|


Ponte: 

  P.M  .   . .  .    .   .   . .  .
E|-----------------------------------------------------|
B|-----------------------------------------------------|
G|-----------------------------------------------------|   (4x)
D|-----------------------------------------------------|
A|-----------------------------------------------------|
E|-2~--2~--2-5--7p5--2~--2~--2-0--1--------------------|

   P.M .   . .  .    .   .   . .  .
E|-----------------------------------------------------|
B|-----------------------------------------------------|
G|-----------------------------------------------------|   (8x)
D|-----------5--7p5------------------------------------|
A|-7~--7~--7---------7~--7~--7-5--6--------------------|
E|-----------------------------------------------------|

Now I know why (4x)


Refrão Final:

E|-----------------------------------------------------|
B|-----------------------------------------------------|
G|-----------------------------------------------------|   (2x)
D|-0-2--0-2--0-2--0-2--5--7--0-2--0-2--0-2--0-2--0--1--|
A|-0-2--0-2--0-2--0-2--5--7--0-2--0-2--0-2--0-2--0--1--|
E|-0-2--0-2--0-2--0-2--5--7--0-2--0-2--0-2--0-2--0--1--|

Now I know why you wanna hate me
Now I know why you wanna hate me
Now I know why you wanna hate me
'cause hate is all 
The world that's even seen lately

E|-----------------------------------------------------|
B|-----------------------------------------------------|
G|-----------------------------------------------------|   (2x)
D|-x-2--x-2--0-2--0-2--5--7--x-2--x-2--0-2--0-2--0--1--|
A|-x-2--x-2--0-2--0-2--5--7--x-2--x-2--0-2--0-2--0--1--|
E|-x-2--x-2--0-2--0-2--5--7--x-2--x-2--0-2--0-2--0--1--|

'cause hate is all 
The world that's even seen lately
'cause hate is all 
The world that's even seen lately


E|-15-12------15-12------15-12------15-12--------------|
B|-------12-------------------------------13--13--12-12|
G|------------------15---------14----------------------|   (Aé o final)
D|-----------------------------------------------------|
A|-----------------------------------------------------|
E|-----------------------------------------------------|
exibições 53.689
Acordes para:
    Composição: Limp Bizkit Colaboração e revisão:
    • Vinícius Dias
    • Pedro Souza
    • lucas silva

    0 comentários

    mostrar mais comentários

    Conseguiu tocar?

    15 tocaram 0 ainda não

    Grave um vídeo tocando Take a Look Around e mande pra gente!

    00:00 / 00:00
    outros vídeos desta música
    repetir qualidade Automático
    Outros vídeos desta música
    00:00 / 00:00
    Automático
    Capítulos
    • Tocando a música
    • Dicas Iniciais / Equipamentos
    • Tocando a Introdução
    • Riff 1
    • Tocando a Primeira Parte
    • Riff 2
    • Tocando o Pré-Refrão
    • Riff 3
    • Acordes do Refrão
    • Tocando o Primeiro Refrão
    • Riff 3 (Variação)
    • Riff 4
    • Tocando a Quarta Estrofe
    • Tocando a Quinta Estrofe
    • Tocando a Ponte
    • Riff 5
    • Riff 6
    • Riff 7
    • Tocando Terceiro Refrão - Final
    • Riff 4 (Variação)
    • Encerramento
    • Ficha Técnicas e Erros de Gravação
    OK