Cifra Club

A 06

Linkin Park

Cifra: Principal
exibições 11.493
Tom: C
Intro - Guitars 1 and 2 (Palm-muted)
|-----------------------------------------------------------------|
|-----------------------------------------------------------------|
|-----------------------------------------------------------------|
|-----------------------------------------------------------------|
|-----------------------------------------------------------------|
|-8p7p0---0---0---1--p0---0---0-------0---1--p0---1--p0---0---0---|

|-----------------------------------------------------------------|
|-----------------------------------------------------------------|
|-----------------------------------------------------------------|
|-----------------------------------------------------------------|
|-----------------------------------------------------------------|
|-8p7p0---0---0---1--p0---0---0-------0---1--p0---1--p0---0---0---|

|-----------------------------------------------------------------|
|-----------------------------------------------------------------|
|-----------------------------------------------------------------|
|-----------------------------------------------------------------|
|-8p7p0---0---0---1--p0---0---0-------0---1--p0---1--p0---0---0---|
|-8p7p0---0---0---1--p0---0---0-------0---1--p0---1--p0---0---0---|

|-----------------------------------------------------------------|
|-----------------------------------------------------------------|
|-----------------------------------------------------------------|
|-----------------------------------------------------------------|
|-8p7p0---0---0---1--p0---0---0-------0---1--p0---1--p0---0---0---|
|-8p7p0---0---0---1--p0---0---0-------0---1--p0---1--p0---0---0---|

|-----------------------------------------------------------------|
|-----------------------------------------------------------------|
|-----------------------------------------------------------------|
|-----------------------------------------------------------------|
|-8p7p0---0---0---1--p0---0---0-------0---1--p0---1--p0---0---0---|
|-8p7p0---0---0---1--p0---0---0-------0---1--p0---1--p0---0---0---|

|-----------------------------------------------------------------|
|-----------------------------------------------------------------|
|-----------------------------------------------------------------|
|-----------------------------------------------------------------|
|-8p7p0---0---0---1--p0---0---0-----------------------------------|
|-8p7p0---0---0---1--p0---0---0-----------------------------------|

Heavy Part - Guitars 1 and 2
|-----------------------------------------------------------------|
|-----------------------------------------------------------------|
|-----------------------------------------------------------------|
|-0---2---1---0---6---0---2---3---0---3---4---0---7---3---1-------|
|-0---2---1---0---6---0---2---3---0---3---4---0---7---3---1-------|
|-0---2---1---0---6---0---2---3---0---3---4---0---7---3---1-------|

|-----------------------------------------------------------------|
|-----------------------------------------------------------------|
|-----------------------------------------------------------------|
|-0---2---1---0---6---0---2---3---0---3---4---0---7---3---1-------|
|-0---2---1---0---6---0---2---3---0---3---4---0---7---3---1-------|
|-0---2---1---0---6---0---2---3---0---3---4---0---7---3---1-------|

|-----------------------------------------------------------------|
|-----------------------------------------------------------------|
|-----------------------------------------------------------------|
|-0---2---1---0---6---0---2---3---0---3---4---0---7---3---1-------|
|-0---2---1---0---6---0---2---3---0---3---4---0---7---3---1-------|
|-0---2---1---0---6---0---2---3---0---3---4---0---7---3---1-------|

|-----------------------------------------------------------------|
|-----------------------------------------------------------------|
|-----------------------------------------------------------------|
|-0---2---1---0---6---0---2---3---0---3---4---0---0---0---0---0---|
|-0---2---1---0---6---0---2---3---0---3---4---0---0---0---0---0---|
|-0---2---1---0---6---0---2---3---0---3---4---0---0---0---0---0---|
PM                                                .   .   .   .

|-----------------------------------------------------------------|
|-----------------------------------------------------------------|
|-----------------------------------------------------------------|
|-0---2---1---0---6---0---2---3---0---3---4---0---7---3---1-------|
|-0---2---1---0---6---0---2---3---0---3---4---0---7---3---1-------|
|-0---2---1---0---6---0---2---3---0---3---4---0---7---3---1-------|

|-----------------------------------------------------------------|
|-----------------------------------------------------------------|
|-----------------------------------------------------------------|
|-0---2---1---0---6---0---2---3---0---3---4---0---7---3---1-------|
|-0---2---1---0---6---0---2---3---0---3---4---0---7---3---1-------|
|-0---2---1---0---6---0---2---3---0---3---4---0---7---3---1-------|

|-----------------------------------------------------------------|
|-----------------------------------------------------------------|
|-----------------------------------------------------------------|
|-0---2---1---0---6---0---2---3---0---3---4---0---7---3---1-------|
|-0---2---1---0---6---0---2---3---0---3---4---0---7---3---1-------|
|-0---2---1---0---6---0---2---3---0---3---4---0---7---3---1-------|

|-----------------------------------------------------------------|
|-----------------------------------------------------------------|
|-----------------------------------------------------------------|
|-0---2---1---0---6---0---2---3---0---0---0---0---0---0---0---0---|
|-0---2---1---0---6---0---2---3---0---0---0---0---0---0---0---0---|
|-0---2---1---0---6---0---2---3---0---0---0---0---0---0---0---0---|
PM                                .   .   .   .   .   .   .   .
Acordes para:
    Colaboração e revisão:
    • Douglas Felipe
    • Matheus Rosa

    0 comentários

      mostrar mais comentários

      Conseguiu tocar?

      0tocaram0ainda não

      Grave um vídeo tocando A 06 e mande pra gente!

      00:00 / 00:00
      outros vídeos desta música
      repetirqualidadeautomática
      Outro vídeos desta música
        00:00 / 00:00
        automática
        OK