Cifra Club

Breaking The Habit

Linkin Park

Cifra: Principal
exibições 149.213
Tom: C#
[Intro]

 Guitarra 1 (Palm-muted)

E|-------------------------------------------------------------------------------------------------|
B|-------------------------------------------------------------------------------------------------|
G|-------------------------------------------------------------------------------------------------|
D|-10---(0)-13----10-10----10----x--11----10-10----10---(0)-13----10-10----10----x--11----10-10----|
A|-------------------------------------------------------------------------------------------------|
E|-------------------------------------------------------------------------------------------------|


E|-------------------------------------------------------------------------------------------------|
B|-------------------------------------------------------------------------------------------------|
G|-------------------------------------------------------------------------------------------------|
D|-10---(0)-13----10-10----10----x--11----10-10----10---(0)-13----10-10----10----x--11----10-10----|
A|-------------------------------------------------------------------------------------------------|
E|-------------------------------------------------------------------------------------------------|


[Primeira Parte]

 Guitarra 1 (Palm-muted)

E|-------------------------------------------------------------------------------------------------|
B|-------------------------------------------------------------------------------------------------|
G|-------------------------------------------------------------------------------------------------|
D|-10---(0)-13----10-10----10----x--11----10-10----10---(0)-13----10-10----10----x--11----10-10----|
A|-------------------------------------------------------------------------------------------------|
E|-------------------------------------------------------------------------------------------------|


E|-------------------------------------------------------------------------------------------------|
B|-------------------------------------------------------------------------------------------------|
G|-------------------------------------------------------------------------------------------------|
D|-10---(0)-13----10-10----10----x--11----10-10----10---(0)-13----10-10----10----x--11----10-10----|
A|-------------------------------------------------------------------------------------------------|
E|-------------------------------------------------------------------------------------------------|


E|-------------------------------------------------------------------------------------------------|
B|-------------------------------------------------------------------------------------------------|
G|-------------------------------------------------------------------------------------------------|
D|-10---(0)-13----10-10----10----x--11----10-10----10---(0)-13----10-10----10----x--11----10-10----|
A|-------------------------------------------------------------------------------------------------|
E|-------------------------------------------------------------------------------------------------|


E|-------------------------------------------------------------------------------------------------|
B|-------------------------------------------------------------------------------------------------|
G|-------------------------------------------------------------------------------------------------|
D|-10---(0)-13----10-10----10----x--11----10-10----10---(0)-13----10-10----10----x--11----10-10----|
A|-------------------------------------------------------------------------------------------------|
E|-------------------------------------------------------------------------------------------------|


E|-------------------------------------------------------------------------------------------------|
B|-------------------------------------------------------------------------------------------------|
G|-------------------------------------------------------------------------------------------------|
D|-10---(0)-13----10-10----10----x--11----10-10----10---(0)-13----10-10----10----x--11----10-10----|
A|-------------------------------------------------------------------------------------------------|
E|-------------------------------------------------------------------------------------------------|


E|-------------------------------------------------------------------------------------------------|
B|-------------------------------------------------------------------------------------------------|
G|-------------------------------------------------------------------------------------------------|
D|-10---(0)-13----10-10----10----x--11----10-10----10---(0)-13----10-10----10----x--11----10-10----|
A|-------------------------------------------------------------------------------------------------|
E|-------------------------------------------------------------------------------------------------|


[Refrão]

 Guitarra 2

E|-------------------------------------------------------------------------------------------------|
B|-------------------------------------------------------------------------------------------------|
G|-----------8----8--10--------------8----8--10--------------8----8--10--------------8----8--10----|
D|-------------------------------------------------------------------------------------------------|
A|-8-----8-----------------8-----8-----------------8-----8-----------------8-----8-----------------|
E|-------------------------------------------------------------------------------------------------|

E|-------------------------------------------------------------------------------------------------|
B|-------------------------------------------------------------------------------------------------|
G|-----------8----8--10--------------8----8--10--------------8----8--10--------------8----8--10----|
D|-------------------------------------------------------------------------------------------------|
A|-8-----8-----------------8-----8-----------------8-----8-----------------8-----8-----------------|
E|-------------------------------------------------------------------------------------------------|

E|-------------------------------------------------------------------------------------------------|
B|-------------------------------------------------------------------------------------------------|
G|-----------8----8--10--------------8----8--10--------------8----8--10--------------8----8--10----|
D|-------------------------------------------------------------------------------------------------|
A|-8-----8-----------------8-----8-----------------8-----8-----------------8-----8-----------------|
E|-------------------------------------------------------------------------------------------------|

E|-------------------------------------------------------------------------------------------------|
B|-------------------------------------------------------------------------------------------------|
G|-----------8----8--10--------------8----8--10--------------8----8--10--------------8----8--10----|
D|-------------------------------------------------------------------------------------------------|
A|-8-----8-----------------8-----8-----------------8-----8-----------------8-----8-----------------|
E|-------------------------------------------------------------------------------------------------|

E|-------------------------------------------------------------------------------------------------|
B|-------------------------------------------------------------------------------------------------|
G|-----------8----8--10--------------8----8--10--------------8----8--10--------------8----8--10----|
D|-------------------------------------------------------------------------------------------------|
A|-8-----8-----------------8-----8-----------------8-----8-----------------8-----8-----------------|
E|-------------------------------------------------------------------------------------------------|


 Guitarra 1 (Palm-muted)

E|-------------------------------------------------------------------------------------------------|
B|-------------------------------------------------------------------------------------------------|
G|-------------------------------------------------------------------------------------------------|
D|-10---(0)-13----10-10----10----x--11----10-10----10---(0)-13----10-10----10----x--11----10-10----|
A|-------------------------------------------------------------------------------------------------|
E|-------------------------------------------------------------------------------------------------|


[Segunda Parte]
 
Guitarra 1 (Palm-muted)

E|-------------------------------------------------------------------------------------------------|
B|-------------------------------------------------------------------------------------------------|
G|-------------------------------------------------------------------------------------------------|
D|-10---(0)-13----10-10----10----x--11----10-10----10---(0)-13----10-10----10----x--11----10-10----|
A|-------------------------------------------------------------------------------------------------|
E|-------------------------------------------------------------------------------------------------|


E|-------------------------------------------------------------------------------------------------|
B|-------------------------------------------------------------------------------------------------|
G|-------------------------------------------------------------------------------------------------|
D|-10---(0)-13----10-10----10----x--11----10-10----10---(0)-13----10-10----10----x--11----10-10----|
A|-------------------------------------------------------------------------------------------------|
E|-------------------------------------------------------------------------------------------------|


E|-------------------------------------------------------------------------------------------------|
B|-------------------------------------------------------------------------------------------------|
G|-------------------------------------------------------------------------------------------------|
D|-10---(0)-13----10-10----10----x--11----10-10----10---(0)-13----10-10----10----x--11----10-10----|
A|-------------------------------------------------------------------------------------------------|
E|-------------------------------------------------------------------------------------------------|


E|-------------------------------------------------------------------------------------------------|
B|-------------------------------------------------------------------------------------------------|
G|-------------------------------------------------------------------------------------------------|
D|-10---(0)-13----10-10----10----x--11----10-10----10---(0)-13----10-10----10----x--11----10-10----|
A|-------------------------------------------------------------------------------------------------|
E|-------------------------------------------------------------------------------------------------|


E|-------------------------------------------------------------------------------------------------|
B|-------------------------------------------------------------------------------------------------|
G|-------------------------------------------------------------------------------------------------|
D|-10---(0)-13----10-10----10----x--11----10-10----10---(0)-13----10-10----10----x--11----10-10----|
A|-------------------------------------------------------------------------------------------------|
E|-------------------------------------------------------------------------------------------------|


E|-------------------------------------------------------------------------------------------------|
B|-------------------------------------------------------------------------------------------------|
G|-------------------------------------------------------------------------------------------------|
D|-10---(0)-13----10-10----10----x--11----10-10----10---(0)-13----10-10----------------------------|
A|-------------------------------------------------------------------------------------------------|
E|-------------------------------------------------------------------------------------------------|


[Refrão]

 Guitarra 2

E|-------------------------------------------------------------------------------------------------|
B|-------------------------------------------------------------------------------------------------|
G|-----------8----8--10--------------8----8--10--------------8----8--10--------------8----8--10----|
D|-------------------------------------------------------------------------------------------------|
A|-8-----8-----------------8-----8-----------------8-----8-----------------8-----8-----------------|
E|-------------------------------------------------------------------------------------------------|

E|-------------------------------------------------------------------------------------------------|
B|-------------------------------------------------------------------------------------------------|
G|-----------8----8--10--------------8----8--10--------------8----8--10--------------8----8--10----|
D|-------------------------------------------------------------------------------------------------|
A|-8-----8-----------------8-----8-----------------8-----8-----------------8-----8-----------------|
E|-------------------------------------------------------------------------------------------------|

E|-------------------------------------------------------------------------------------------------|
B|-------------------------------------------------------------------------------------------------|
G|-----------8----8--10--------------8----8--10--------------8----8--10--------------8----8--10----|
D|-------------------------------------------------------------------------------------------------|
A|-8-----8-----------------8-----8-----------------8-----8-----------------8-----8-----------------|
E|-------------------------------------------------------------------------------------------------|

E|-------------------------------------------------------------------------------------------------|
B|-------------------------------------------------------------------------------------------------|
G|-----------8----8--10--------------8----8--10--------------8----8--10--------------8----8--10----|
D|-------------------------------------------------------------------------------------------------|
A|-8-----8-----------------8-----8-----------------8-----8-----------------8-----8-----------------|
E|-------------------------------------------------------------------------------------------------|

E|-------------------------------------------------------------------------------------------------|
B|-------------------------------------------------------------------------------------------------|
G|------(10)-8----8--10---------(10)-8----8--10---------(10)-8----8--10---------(10)-8----8--10----|
D|-------------------------------------------------------------------------------------------------|
A|-8-----------------------8-----------------------8-----------------------8-----------------------|
E|-------------------------------------------------------------------------------------------------|


[Ponte]

 Guitarra 2

E|-------------------------------------------------------------------------------------------------|
B|-------------------------------------------------------------------------------------------------|
G|-----------8----8--10--------------8----8--10--------------8----8--10--------------8----8--10----|
D|-------------------------------------------------------------------------------------------------|
A|-8-----8-----------------8-----8-----------------8-----8-----------------8-----8-----------------|
E|-------------------------------------------------------------------------------------------------|

E|-------------------------------------------------------------------------------------------------|
B|-------------------------------------------------------------------------------------------------|
G|-----------8----8--10--------------8----8--10--------------8----8--10--------------8----8--10----|
D|-------------------------------------------------------------------------------------------------|
A|-8-----8-----------------8-----8-----------------8-----8-----------------8-----8-----------------|
E|-------------------------------------------------------------------------------------------------|

E|-------------------------------------------------------------------------------------------------|
B|-------------------------------------------------------------------------------------------------|
G|-----------8----8--10--------------8----8--10--------------8----8--10--------------8----8--10----|
D|-------------------------------------------------------------------------------------------------|
A|-8-----8-----------------8-----8-----------------8-----8-----------------8-----8-----------------|
E|-------------------------------------------------------------------------------------------------|

E|-------------------------------------------------------------------------------------------------|
B|-------------------------------------------------------------------------------------------------|
G|-----------8----8--10--------------8----8--10--------------8----8--10--------------8----8--10----|
D|-------------------------------------------------------------------------------------------------|
A|-8-----8-----------------8-----8-----------------8-----8-----------------8-----8-----------------|
E|-------------------------------------------------------------------------------------------------|


[Refrão]

 Guitarra 2

E|-------------------------------------------------------------------------------------------------|
B|-------------------------------------------------------------------------------------------------|
G|-----------8----8--10--------------8----8--10--------------8----8--10--------------8----8--10----|
D|-------------------------------------------------------------------------------------------------|
A|-8-----8-----------------8-----8-----------------8-----8-----------------8-----8-----------------|
E|-------------------------------------------------------------------------------------------------|

E|-------------------------------------------------------------------------------------------------|
B|-------------------------------------------------------------------------------------------------|
G|-----------8----8--10--------------8----8--10--------------8----8--10--------------8----8--10----|
D|-------------------------------------------------------------------------------------------------|
A|-8-----8-----------------8-----8-----------------8-----8-----------------8-----8-----------------|
E|-------------------------------------------------------------------------------------------------|

E|-------------------------------------------------------------------------------------------------|
B|-------------------------------------------------------------------------------------------------|
G|-----------8----8--10--------------8----8--10--------------8----8--10--------------8----8--10----|
D|-------------------------------------------------------------------------------------------------|
A|-8-----8-----------------8-----8-----------------8-----8-----------------8-----8-----------------|
E|-------------------------------------------------------------------------------------------------|

E|-------------------------------------------------------------------------------------------------|
B|-------------------------------------------------------------------------------------------------|
G|-----------8----8--10--------------8----8--10--------------8----8--10--------------8----8--10----|
D|-------------------------------------------------------------------------------------------------|
A|-8-----8-----------------8-----8-----------------8-----8-----------------8-----8-----------------|
E|-------------------------------------------------------------------------------------------------|

E|-------------------------------------------------------------------------------------------------|
B|-------------------------------------------------------------------------------------------------|
G|-----------8----8--10--------------8----8--10--------------8----8--10--------------8----8--10----|
D|-------------------------------------------------------------------------------------------------|
A|-8-----8-----------------8-----8-----------------8-----8-----------------8-----8-----------------|
E|-------------------------------------------------------------------------------------------------|

E|-------------------------------------------------------------------------------------------------|
B|-------------------------------------------------------------------------------------------------|
G|-----------8----8--10--------------8----8--10--------------8----8--10--------------8----8--10----|
D|-------------------------------------------------------------------------------------------------|
A|-8-----8-----------------8-----8-----------------8-----8-----------------8-----8-----------------|
E|-------------------------------------------------------------------------------------------------|
Acordes para:
    Colaboração e revisão:
    • Lucas Kappaun
    • Douglas Felipe
    • Camilla

    0 comentários

      mostrar mais comentários

      Conseguiu tocar?

      19tocaram1ainda não

      Grave um vídeo tocando Breaking The Habit e mande pra gente!

      00:00 / 00:00
      outros vídeos desta música
      repetirqualidadeautomática
      Outro vídeos desta música
        00:00 / 00:00
        automática
        OK