Cifra Club

Carousel

Linkin Park

Cifra: Principal
exibições 13.222
Tom: F#
Riff (with delay)

eb--------------------------------------------------------
Bb--------------------------------------------------------
Gb--------------------------------------------------------
Db--6---9---6---7------6---9---6---7----------------------
Ab-----------------8------------------8-------------------
Db--------------------------------------------------------


Verse

eb--------------------------------------------------------
Bb--------------------------------------------------------
Gb----9-----------------9---------------------------------
Db------9----9------------9---9---------------------------
Ab--7------7-8-8-7-7--7-----7-8-8-7-7---------------------
Eb--------------------------------------------------------

("She can't hide no matter how hard she tries...")

Chorus A (Guitar 1)

eb--------------------------------------------------------
Bb--------------------------------------------------------
Gb--------------------------------------------------------
Db--2-2--2-2----3-3--3-3----2-2--2-2----3-3--3-3----------
Ab--2-2--2-2----3-3--3-3----2-2--2-2----3-3--3-3----------
Eb--2-2--2-2----3-3--3-3----2-2--2-2----3-3--3-3----------

("I never know just why you run...")

Chorus B (Guitar 2)

eb--------------------------------------------------------
Bb--------------------------------------------------------
Gb---------9----------13-----------9----------14-14-13----
Db---------x-----------x-----------x-----------x--x--x----
Ab---------7----------11-----------7----------12-12-11----
Eb--------------------------------------------------------


Bridge

eb--------------------------------------------------------
Bb--------------------------------------------------------
Gb--------------------------------------------------------
Db--2-2--2-2----2-2--2-2----2-2--2-2----2-2--2-2----------
Ab--2-2--2-2----2-2--2-2----2-2--2-2----2-2--2-2----------
Eb--2-2--2-2----2-2--2-2----2-2--2-2----2-2--2-2----------



Riff
Verse
Chorus A, B
Verse
Chorus A, B
Bridge, Verse
Chorus A, B
Acordes para:

    0 comentários

      mostrar mais comentários

      Conseguiu tocar?

      0tocaram0ainda não

      Grave um vídeo tocando Carousel e mande pra gente!

      00:00 / 00:00
      outros vídeos desta música
      repetirqualidadeautomática
      Outro vídeos desta música
        00:00 / 00:00
        automática
        OK