Enviar cifraEntrar

Faint

Linkin Park

Cifra: Principal
exibições 286.657
Tom: D
Intro
|-------------------------------------------------------------------------------------------------|
|-------------------------------------------------------------------------------------------------|
|-------------------------------------------------------------------------------------7--7--7--7--|
|-------------------------------------------------------------------------------------x--x--x--x--|
|-------------------------------------------------------------------------------------5--5--5--5--|
|-------------------------------------------------------------------------------------------------|
|Guitar 1
|
|-------------------------------------------------------------------------------------------------|
|-------------------------------------------------------------------------------------------------|
|-------------------------------------------------------------------------------------------------|
|-------------------------------------------------0~---------------------------------(x)----------|
|---------------------------------------(fade in)-0~---------------------------------(x)----------|
|-------------------------------------------------0~---------------------------------(x)----------|
|Guitars 2 and 3

Heavy Intro
|-------------------------------------------------------------------------------------------------|
|-------------------------------------------------------------------------------------------------|
|-7--7--7--14-14-12-12----12-12-12-14-14-10-10----7--7--7--14-14-12-12----12-12-12-14-14-10-10----|
|-x--x--x--x--x--x--x-----x--x--x--x--x--x--x-----x--x--x--x--x--x--x-----x--x--x--x--x--x--x-----|
|-5--5--5--12-12-10-10----10-10-10-12-12-8--8-----5--5--5--12-12-10-10----10-10-10-12-12-8--8-----|
|-------------------------------------------------------------------------------------------------|
|Guitar 1
|
|-------------------------------------------------------------------------------------------------|
|-------------------------------------------------------------------------------------------------|
|-------------------------------------------------------------------------------------------------|
|-0--0--0--0--0--0--0-----3--3--3--3--3--3--3-----8--8--8--8--8--8--8-----5--5--5--7--7--3--3-----|
|-0--0--0--0--0--0--0-----3--3--3--3--3--3--3-----8--8--8--8--8--8--8-----5--5--5--7--7--3--3-----|
|-0--0--0--0--0--0--0-----3--3--3--3--3--3--3-----8--8--8--8--8--8--8-----5--5--5--7--7--3--3-----|
|Guitars 2 and 3

|-------------------------------------------------------------------------------------------------|
|-------------------------------------------------------------------------------------------------|
|-7--7--7--14-14-12-12----12-12-12-14-14-10-10----7--7--7--14-14-12-12----12-12-12-14-14-10-10----|
|-x--x--x--x--x--x--x-----x--x--x--x--x--x--x-----x--x--x--x--x--x--x-----x--x--x--x--x--x--x-----|
|-5--5--5--12-12-10-10----10-10-10-12-12-8--8-----5--5--5--12-12-10-10----10-10-10-12-12-8--8-----|
|-------------------------------------------------------------------------------------------------|
|Guitar 1
|
|-------------------------------------------------------------------------------------------------|
|-------------------------------------------------------------------------------------------------|
|-------------------------------------------------------------------------------------------------|
|-0--0--0--0--0--0--0-----3--3--3--3--3--3--3-----8--8--8--8--8--8--8-----5--5--5--7--7--3--3-----|
|-0--0--0--0--0--0--0-----3--3--3--3--3--3--3-----8--8--8--8--8--8--8-----5--5--5--7--7--3--3-----|
|-0--0--0--0--0--0--0-----3--3--3--3--3--3--3-----8--8--8--8--8--8--8-----5--5--5--7--7--3--3-----|
|Guitars 2 and 3

First Verse - Guitars 2 and 3

|-------------------------------------------------------------------------------------------------|
|-------------------------------------------------------------------------------------------------|
|-------------------------------------------------------------------------------------------------|
|-0--0--------------------------------------------------------------------------------------------|
|-0--0--------------------------------------------------------------------------------------------|
|-0--0--------------------------------------------------------------------------------------------|


|-------------------------------------------------------------------------------------------------|
|-------------------------------------------------------------------------------------------------|
|-------------------------------------------------------------------------------------------------|
|-0--0--------------------------------------------------------------------------------------------|
|-0--0--------------------------------------------------------------------------------------------|
|-0--0--------------------------------------------------------------------------------------------|


|-------------------------------------------------------------------------------------------------|
|-------------------------------------------------------------------------------------------------|
|-------------------------------------------------------------------------------------7--7--7--7--|
|-------------------------------------------------------------------------------------x--x--x--x--|
|-------------------------------------------------------------------------------------5--5--5--5--|
|-------------------------------------------------------------------------------------------------|
|Guitar 1
|

|-------------------------------------------------------------------------------------------------|
|-------------------------------------------------------------------------------------------------|
|-------------------------------------------------------------------------------------------------|
|-0--0--------------------------------------------8--8--------------------5--5--------------------|
|-0--0--------------------------------------------8--8--------------------3--3--------------------|
|-0--0--------------------------------------------8--8--------------------5--5--------------------|

|Guitars 2 and 3

Chorus
|-------------------------------------------------------------------------------------------------|
|-------------------------------------------------------------------------------------------------|
|-7--7--7--14-14-12-12----12-12-12-14-14-10-10----7--7--7--14-14-12-12----12-12-12-14-14-10-10----|
|-x--x--x--x--x--x--x-----x--x--x--x--x--x--x-----x--x--x--x--x--x--x-----x--x--x--x--x--x--x-----|
|-5--5--5--12-12-10-10----10-10-10-12-12-8--8-----5--5--5--12-12-10-10----10-10-10-12-12-8--8-----|
|-------------------------------------------------------------------------------------------------|
|Guitar 1
|
|-------------------------------------------------------------------------------------------------|
|-------------------------------------------------------------------------------------------------|
|-------------------------------------------------------------------------------------------------|
|-0--0--0--0--0--0--0-----3--3--3--3--3--3--3-----8--8--8--8--8--8--8-----5--5--5--7--7--3--3-----|
|-0--0--0--0--0--0--0-----3--3--3--3--3--3--3-----8--8--8--8--8--8--8-----5--5--5--7--7--3--3-----|
|-0--0--0--0--0--0--0-----3--3--3--3--3--3--3-----8--8--8--8--8--8--8-----5--5--5--7--7--3--3-----|
|Guitars 2 and 3

|-------------------------------------------------------------------------------------------------|
|-------------------------------------------------------------------------------------------------|
|-7--7--7--14-14-12-12----12-12-12-14-14-10-10----7--7--7--14-14-12-12----12-12-12-14-14-10-10----|
|-x--x--x--x--x--x--x-----x--x--x--x--x--x--x-----x--x--x--x--x--x--x-----x--x--x--x--x--x--x-----|
|-5--5--5--12-12-10-10----10-10-10-12-12-8--8-----5--5--5--12-12-10-10----10-10-10-12-12-8--8-----|
|-------------------------------------------------------------------------------------------------|
|Guitar 1
|
|-------------------------------------------------------------------------------------------------|
|-------------------------------------------------------------------------------------------------|
|-------------------------------------------------------------------------------------------------|
|-0--0--0--0--0--0--0-----3--3--3--3--3--3--3-----8--8--8--8--8--8--8-----5--5--5--7--7--3--3-----|
|-0--0--0--0--0--0--0-----3--3--3--3--3--3--3-----8--8--8--8--8--8--8-----5--5--5--7--7--3--3-----|
|-0--0--0--0--0--0--0-----3--3--3--3--3--3--3-----8--8--8--8--8--8--8-----5--5--5--7--7--3--3-----|
|Guitars 2 and 3

|-------------------------|
|-------------------------|
|-10-10-10-10-10-10-10-10-|
|-x--x--x--x--x--x--x--x--|
|-8--8--8--8--8--8--8--8--|
|-------------------------|
|Guitar 1
|
|-------------------------|
|-------------------------|
|-------------------------|
|-3--3--3--3--3--3--3--3--|
|-3--3--3--3--3--3--3--3--|
|-3--3--3--3--3--3--3--3--|
|Guitars 2 and 3

2nd Verse - Guitars 2 and 3

|-------------------------------------------------------------------------------------------------|
|-------------------------------------------------------------------------------------------------|
|-------------------------------------------------------------------------------------------------|
|-0--0--------------------------------------------------------------------------------------------|
|-0--0--------------------------------------------------------------------------------------------|
|-0--0--------------------------------------------------------------------------------------------|


|-------------------------------------------------------------------------------------------------|
|-------------------------------------------------------------------------------------------------|
|-------------------------------------------------------------------------------------------------|
|-0--0--------------------------------------------------------------------------------------------|
|-0--0--------------------------------------------------------------------------------------------|
|-0--0--------------------------------------------------------------------------------------------|


|-------------------------------------------------------------------------------------------------|
|-------------------------------------------------------------------------------------------------|
|-------------------------------------------------------------------------------------------------|
|-0--0--------------------------------------------8--8--------------------5--5--------------------|
|-0--0--------------------------------------------8--8--------------------3--3--------------------|
|-0--0--------------------------------------------8--8--------------------5--5--------------------|


(Guitar 1)

|-------------------------|
|-------------------------|
|-------------7--7--7--7--|
|-------------x--x--x--x--|
|-------------5--5--5--5--|
|-------------------------|


Chorus
|-------------------------------------------------------------------------------------------------|
|-------------------------------------------------------------------------------------------------|
|-7--7--7--14-14-12-12----12-12-12-14-14-10-10----7--7--7--14-14-12-12----12-12-12-14-14-10-10----|
|-x--x--x--x--x--x--x-----x--x--x--x--x--x--x-----x--x--x--x--x--x--x-----x--x--x--x--x--x--x-----|
|-5--5--5--12-12-10-10----10-10-10-12-12-8--8-----5--5--5--12-12-10-10----10-10-10-12-12-8--8-----|
|-------------------------------------------------------------------------------------------------|
|Guitar 1
|
|-------------------------------------------------------------------------------------------------|
|-------------------------------------------------------------------------------------------------|
|-------------------------------------------------------------------------------------------------|
|-0--0--0--0--0--0--0-----3--3--3--3--3--3--3-----8--8--8--8--8--8--8-----5--5--5--7--7--3--3-----|
|-0--0--0--0--0--0--0-----3--3--3--3--3--3--3-----8--8--8--8--8--8--8-----5--5--5--7--7--3--3-----|
|-0--0--0--0--0--0--0-----3--3--3--3--3--3--3-----8--8--8--8--8--8--8-----5--5--5--7--7--3--3-----|
|Guitars 2 and 3

|-------------------------------------------------------------------------------------------------|
|-------------------------------------------------------------------------------------------------|
|-7--7--7--14-14-12-12----12-12-12-14-14-10-10----7--7--7--14-14-12-12----12-12-12-14-14-10-10----|
|-x--x--x--x--x--x--x-----x--x--x--x--x--x--x-----x--x--x--x--x--x--x-----x--x--x--x--x--x--x-----|
|-5--5--5--12-12-10-10----10-10-10-12-12-8--8-----5--5--5--12-12-10-10----10-10-10-12-12-8--8-----|
|-------------------------------------------------------------------------------------------------|
|Guitar 1
|
|-------------------------------------------------------------------------------------------------|
|-------------------------------------------------------------------------------------------------|
|-------------------------------------------------------------------------------------------------|
|-0--0--0--0--0--0--0-----3--3--3--3--3--3--3-----8--8--8--8--8--8--8-----5--5--5--7--7--3--3-----|
|-0--0--0--0--0--0--0-----3--3--3--3--3--3--3-----8--8--8--8--8--8--8-----5--5--5--7--7--3--3-----|
|-0--0--0--0--0--0--0-----3--3--3--3--3--3--3-----8--8--8--8--8--8--8-----5--5--5--7--7--3--3-----|
|Guitars 2 and 3

|-------------------------|
|-------------------------|
|-10-10-10-10-10-10-10-10-|
|-x--x--x--x--x--x--x--x--|
|-8--8--8--8--8--8--8--8--|
|-------------------------|
|Guitar 1
|
|-------------------------|
|-------------------------|
|-------------------------|
|-3--3--3--3--3--3--3--3--|
|-3--3--3--3--3--3--3--3--|
|-3--3--3--3--3--3--3--3--|
|Guitars 2 and 3

Bridge - Guitars 2 and 3

|-------------------------------------------------------------------------------------------------|
|-------------------------------------------------------------------------------------------------|
|-------------------------------------------------------------------------------------------------|
|-0--7--3--2--3--2-----0--0--7--3--2--3--2--------0--7--3--2--3--2-----0--0--7--3--2--3--2--------|
|-0--7--3--2--3--2-----0--0--7--3--2--3--2--------0--7--3--2--3--2-----0--0--7--3--2--3--2--------|
|-0--7--3--2--3--2-----0--0--7--3--2--3--2--------0--7--3--2--3--2-----0--0--7--3--2--3--2--------|


|-------------------------------------------------------------------------------------------------|
|-------------------------------------------------------------------------------------------------|
|-------------------------------------------------------------------------------------------------|
|-0--7--3--2--3--2-----0--0--7--3--2--3--2--------0--7--3--2--3--2-----0--0--7--3--2--3--2--------|
|-0--7--3--2--3--2-----0--0--7--3--2--3--2--------0--7--3--2--3--2-----0--0--7--3--2--3--2--------|
|-0--7--3--2--3--2-----0--0--7--3--2--3--2--------0--7--3--2--3--2-----0--0--7--3--2--3--2--------|


Breakdown - Guitars 2 and 3

|-------------------------------------------------------------------------------------------------|
|-------------------------------------------------------------------------------------------------|
|-------------------------------------------------------------------------------------------------|
|--------------------------------------------------------(fade in, continue into next line)-5*~---|
|-------------------------------------------------------------------------------------------------|
|-------------------------------------------------------------------------------------------------|


|-------------------------|
|-------------------------|
|-------------------------|
|-(5*~)------------(x)----|
|-------------------------|
|-------------------------|


Final Chorus
|-------------------------------------------------------------------------------------------------|
|-------------------------------------------------------------------------------------------------|
|-7--7--7--14-14-12-12----12-12-12-14-14-10-10----7--7--7--14-14-12-12----12-12-12-14-14-10-10----|
|-x--x--x--x--x--x--x-----x--x--x--x--x--x--x-----x--x--x--x--x--x--x-----x--x--x--x--x--x--x-----|
|-5--5--5--12-12-10-10----10-10-10-12-12-8--8-----5--5--5--12-12-10-10----10-10-10-12-12-8--8-----|
|-------------------------------------------------------------------------------------------------|
|Guitar 1
|
|-------------------------------------------------------------------------------------------------|
|-------------------------------------------------------------------------------------------------|
|-------------------------------------------------------------------------------------------------|
|-0--0--0--0--0--0--0-----3--3--3--3--3--3--3-----8--8--8--8--8--8--8-----5--5--5--7--7--3--3-----|
|-0--0--0--0--0--0--0-----3--3--3--3--3--3--3-----8--8--8--8--8--8--8-----5--5--5--7--7--3--3-----|
|-0--0--0--0--0--0--0-----3--3--3--3--3--3--3-----8--8--8--8--8--8--8-----5--5--5--7--7--3--3-----|
|Guitars 2 and 3

|-------------------------------------------------------------------------------------------------|
|-------------------------------------------------------------------------------------------------|
|-7--7--7--14-14-12-12----12-12-12-14-14-10-10----7--7--7--14-14-12-12----12-12-12-14-14-10-10----|
|-x--x--x--x--x--x--x-----x--x--x--x--x--x--x-----x--x--x--x--x--x--x-----x--x--x--x--x--x--x-----|
|-5--5--5--12-12-10-10----10-10-10-12-12-8--8-----5--5--5--12-12-10-10----10-10-10-12-12-8--8-----|
|-------------------------------------------------------------------------------------------------|
|Guitar 1
|
|-------------------------------------------------------------------------------------------------|
|-------------------------------------------------------------------------------------------------|
|-------------------------------------------------------------------------------------------------|
|-0--0--0--0--0--0--0-----3--3--3--3--3--3--3-----8--8--8--8--8--8--8-----5--5--5--7--7--3--3-----|
|-0--0--0--0--0--0--0-----3--3--3--3--3--3--3-----8--8--8--8--8--8--8-----5--5--5--7--7--3--3-----|
|-0--0--0--0--0--0--0-----3--3--3--3--3--3--3-----8--8--8--8--8--8--8-----5--5--5--7--7--3--3-----|
|Guitars 2 and 3

Ending
|-------------------------------------------------------------------------------------------------|
|-------------------------------------------------------------------------------------------------|
|-7--7--7--14-14-12-12----12-12-12-14-14-10-10----7--7--7--14-14-12-12----12-12-12-14-14-10-10----|
|-x--x--x--x--x--x--x-----x--x--x--x--x--x--x-----x--x--x--x--x--x--x-----x--x--x--x--x--x--x-----|
|-5--5--5--12-12-10-10----10-10-10-12-12-8--8-----5--5--5--12-12-10-10----10-10-10-12-12-8--8-----|
|-------------------------------------------------------------------------------------------------|
|Guitar 1
|
|-------------------------------------------------------------------------------------------------|
|-------------------------------------------------------------------------------------------------|
|-------------------------------------------------------------------------------------------------|
|-0--0--0--0--0--0--0-----3--3--3--3--3--3--3-----8--8--8--8--8--8--8-----5--5--5--7--7--3--3-----|
|-0--0--0--0--0--0--0-----3--3--3--3--3--3--3-----8--8--8--8--8--8--8-----5--5--5--7--7--3--3-----|
|-0--0--0--0--0--0--0-----3--3--3--3--3--3--3-----8--8--8--8--8--8--8-----5--5--5--7--7--3--3-----|
|Guitars 2 and 3

|-------------------------------------------------------------------------------------------------|
|-------------------------------------------------------------------------------------------------|
|-7--7--7--14-14-12-12----12-12-12-14-14-10-10----7--7--7--14-14-12-12----12-12-12-14-14-10-10----|
|-x--x--x--x--x--x--x-----x--x--x--x--x--x--x-----x--x--x--x--x--x--x-----x--x--x--x--x--x--x-----|
|-5--5--5--12-12-10-10----10-10-10-12-12-8--8-----5--5--5--12-12-10-10----10-10-10-12-12-8--8-----|
|-------------------------------------------------------------------------------------------------|
|Guitar 1
|
|-------------------------------------------------------------------------------------------------|
|-------------------------------------------------------------------------------------------------|
|-------------------------------------------------------------------------------------------------|
|-0--0--0--0--0--0--0-----3--3--3--3--3--3--3-----8--8--8--8--8--8--8-----5--5--5--7--7--3--3-----|
|-0--0--0--0--0--0--0-----3--3--3--3--3--3--3-----8--8--8--8--8--8--8-----5--5--5--7--7--3--3-----|
|-0--0--0--0--0--0--0-----3--3--3--3--3--3--3-----8--8--8--8--8--8--8-----5--5--5--7--7--3--3-----|
|Guitars 2 and 3

|-------------------------------------------------------------------------------------------------|
|-------------------------------------------------------------------------------------------------|
|-10-10-10-10-10-8--8--8--------------------------------------------------------------------------|
|-x--x--x--x--x--x--x--x--------------------------------------------------------------------------|
|-8--8--8--8--8--6--6--6--------------------------------------------------------------------------|
|-------------------------------------------------------------------------------------------------|
|Guitar 1
|
|-------------------------------------------------------------------------------------------------|
|-------------------------------------------------------------------------------------------------|
|-------------------------------------------------------------------------------------------------|
|-3--3--3--3--3--1--1--1--------------------------------------------------------------------------|
|-3--3--3--3--3--1--1--1--------------------------------------------------------------------------|
|-3--3--3--3--3--1--1--1--------------------------------------------------------------------------|
|Guitars 2 and 3
  • 1
  • 2
  • 3
  • 4
  • 5
  • 6
  • 7
  • 8
  • 9
  • 10
  • 11
  • 12
    Acordes para:
      Colaboração e revisão:

      0 comentários

        mostrar mais comentários

        Conseguiu tocar?

        10tocaram1ainda não

        Grave um vídeo tocando Faint e mande pra gente!

        00:00 / 00:00
        outros vídeos desta música
        repetirqualidadeautomática
        • automática
        Outro vídeos desta música
          00:00 / 00:00
          automática
          • automática
          fecharplay/pause subir/descer velocidade
            acordes
            fechar
            OK
            Feedback