Cifra Club

Faint

Linkin Park

Cifra: Principal
exibições 295.749
Tom: E
Afinação: Db Ab Db Gb Bb Eb

[Intro]


Eb|-22-------22------------------------------------------------------------------|
Bb|-------------------20/22-----20/15-----20/15------20/15------20/15------------|
Gb|------------------------------------------------------------------------------|
Db|------------------------------------------------------------------------------|
Ab|------------------------------------------------------------------------------|
Db|------------------------------------------------------------------------------|


Eb|-22--------------------------------------------------|------------------------|
Bb|----------20/22--------20\15-----20\15-----20\15-----|------------------------|
Gb|-----------------------------------------------------|--7-7-7-7---------------|
Db|-----------------------------------------------------|--x-x-x-x---------------|
Ab|-----------------------------------------------------|--5-5-5-5---------------|
Db|-----------------------------------------------------|------------------------|


   Guitarra 1

Eb|------------------------------------------------------------------------------|
Bb|------------------------------------------------------------------------------|
Gb|-7-7-7-14-14\12-12-12-12-12-14-14\10-10---------------------------------------|
Db|-x-x-x--x--x--x--x--x--x--x--x--x-x--x----------------------------------------|
Ab|-5-5-5-12-12\10-10-10-10-10-12-12\8--8----------------------------------------|
Db|------------------------------------------------------------------------------|


   Guitarra 2

Eb|------------------------------------------------------------------------------|
Bb|------------------------------------------------------------------------------|
Gb|------------------------------------------------------------------------------|
Db|-0-0-0-0-0-0-0-0-5-5-5-5-5-5-5-5-8-8-8-8-8-8-8-8-5-5-5-7-3-3-3----------------|
Ab|-0-0-0-0-0-0-0-0-3-3-3-3-3-3-3-3-8-8-8-8-8-8-8-8-5-5-5-7-3-3-3----------------|
Db|-0-0-0-0-0-0-0-0-3-3-3-3-3-3-3-3-8-8-8-8-8-8-8-8-5-5-5-7-3-3-3----------------|


[Verso]


Eb|---------------------------------------------------------------|--------------|
Bb|---------------------------------------------------------------|--------------|
Gb|---------------------------------------------------------------|-7-7-7-7------|
Db|-0--------------0-------------0-------------10-10-------5-5----|-x-x-x-x------|
Ab|-0--------------0-------------0-------------8--8--------3-3----|-5-5-5-5------|
Db|-0--------------0-------------0-------------8--8--------3-3----|--------------|


[Refrão]

   Guitarra 1

Eb|------------------------------------------------------------------------------|
Bb|------------------------------------------------------------------------------|
Gb|-7-7-7-14-14\12-12-12-12-12-14-14\10-10---------------------------------------|
Db|-x-x-x--x--x--x--x--x--x--x--x--x-x--x----------------------------------------|  (2x)
Ab|-5-5-5-12-12\10-10-10-10-10-12-12\8--8----------------------------------------|
Db|------------------------------------------------------------------------------|


   Guitarra 2

Eb|------------------------------------------------------------------------------|
Bb|------------------------------------------------------------------------------|
Gb|------------------------------------------------------------------------------|
Db|-0-0-0-0-0-0-0-0-5-5-5-5-5-5-5-5-8-8-8-8-8-8-8-8-5-5-5-7-3-3-3----------------|
Ab|-0-0-0-0-0-0-0-0-3-3-3-3-3-3-3-3-8-8-8-8-8-8-8-8-5-5-5-7-3-3-3----------------|
Db|-0-0-0-0-0-0-0-0-3-3-3-3-3-3-3-3-8-8-8-8-8-8-8-8-5-5-5-7-3-3-3----------------|

 
   Guitarra 2         Guitarra 1

Eb|------------------|---------------------------------------------------------|
Bb|------------------|---------------------------------------------------------|
Gb|------------------|-10-10-10-10-10-10-10-10---------------------------------|
Db|-5-5-5-5-5-5-5-5--|-x--x--x--x--x--x--x--x----------------------------------|
Ab|-3-3-3-3-3-3-3-3--|-8--8--8--8--8--8--8--8----------------------------------|
Db|-3-3-3-3-3-3-3-3--|---------------------------------------------------------|


[Verso]


Eb|---------------------------------------------------------------|--------------|
Bb|---------------------------------------------------------------|--------------|
Gb|---------------------------------------------------------------|-7-7-7-7------|
Db|-0--------------0-------------0-------------10-10-------5-5----|-x-x-x-x------|
Ab|-0--------------0-------------0-------------8--8--------3-3----|-5-5-5-5------|
Db|-0--------------0-------------0-------------8--8--------3-3----|--------------|


[Refrão]

   Guitarra 1

Eb|------------------------------------------------------------------------------|
Bb|------------------------------------------------------------------------------|
Gb|-7-7-7-14-14\12-12-12-12-12-14-14\10-10---------------------------------------|
Db|-x-x-x--x--x--x--x--x--x--x--x--x-x--x----------------------------------------|  (2x)
Ab|-5-5-5-12-12\10-10-10-10-10-12-12\8--8----------------------------------------|
Db|------------------------------------------------------------------------------|


   Guitarra 2

Eb|------------------------------------------------------------------------------|
Bb|------------------------------------------------------------------------------|
Gb|------------------------------------------------------------------------------|
Db|-0-0-0-0-0-0-0-0-5-5-5-5-5-5-5-5-8-8-8-8-8-8-8-8-5-5-5-7-3-3-3----------------|
Ab|-0-0-0-0-0-0-0-0-3-3-3-3-3-3-3-3-8-8-8-8-8-8-8-8-5-5-5-7-3-3-3----------------|
Db|-0-0-0-0-0-0-0-0-3-3-3-3-3-3-3-3-8-8-8-8-8-8-8-8-5-5-5-7-3-3-3----------------|

 
   Guitarra 2         Guitarra 1

Eb|------------------|---------------------------------------------------------|
Bb|------------------|---------------------------------------------------------|
Gb|------------------|-10-10-10-10-10-10-10-10---------------------------------|
Db|-5-5-5-5-5-5-5-5--|-x--x--x--x--x--x--x--x----------------------------------|
Ab|-3-3-3-3-3-3-3-3--|-8--8--8--8--8--8--8--8----------------------------------|
Db|-3-3-3-3-3-3-3-3--|---------------------------------------------------------|


[Ponte]


Eb|------------------------------------------------------------------------------|
Bb|------------------------------------------------------------------------------|
Gb|------------------------------------------------------------------------------|
Db|-0--7--3-2-3-2--0--0--7--3-2-3-2----------------------------------------------|  (4x)
Ab|-0--7--3-2-3-2--0--0--7--3-2-3-2----------------------------------------------|
Db|-0--7--3-2-3-2--0--0--7--3-2-3-2----------------------------------------------|


[Refrão]

   Guitarra 1

Eb|------------------------------------------------------------------------------|
Bb|------------------------------------------------------------------------------|
Gb|-7-7-7-14-14\12-12-12-12-12-14-14\10-10---------------------------------------|
Db|-x-x-x--x--x--x--x--x--x--x--x--x-x--x----------------------------------------|  (2x)
Ab|-5-5-5-12-12\10-10-10-10-10-12-12\8--8----------------------------------------|
Db|------------------------------------------------------------------------------|


   Guitarra 2

Eb|------------------------------------------------------------------------------|
Bb|------------------------------------------------------------------------------|
Gb|------------------------------------------------------------------------------|
Db|-0-0-0-0-0-0-0-0-5-5-5-5-5-5-5-5-8-8-8-8-8-8-8-8-5-5-5-7-3-3-3----------------|
Ab|-0-0-0-0-0-0-0-0-3-3-3-3-3-3-3-3-8-8-8-8-8-8-8-8-5-5-5-7-3-3-3----------------|
Db|-0-0-0-0-0-0-0-0-3-3-3-3-3-3-3-3-8-8-8-8-8-8-8-8-5-5-5-7-3-3-3----------------|

 
   Guitarra 2         Guitarra 1

Eb|------------------|---------------------------------------------------------|
Bb|------------------|---------------------------------------------------------|
Gb|------------------|-10-10-10-10-10-10-10-10---------------------------------|
Db|-5-5-5-5-5-5-5-5--|-x--x--x--x--x--x--x--x----------------------------------|
Ab|-3-3-3-3-3-3-3-3--|-8--8--8--8--8--8--8--8----------------------------------|
Db|-3-3-3-3-3-3-3-3--|---------------------------------------------------------|


[Final]


Eb|------------------------------------------------------------------------------|
Bb|------------------------------------------------------------------------------|
Gb|------------------------------------------------------------------------------|
Db|-0--0--0--0--0--0--0--5--5--5-/-7--3--3--3------------------------------------|
Ab|-0--0--0--0--0--0--0--3--3--3-/-7--3--3--3------------------------------------|
Db|-0--0--0--0--0--0--0--3--3--3-/-7--3--3--3------------------------------------|


Eb|------------------------------------------------------------------------------|
Bb|------------------------------------------------------------------------------|
Gb|------------------------------------------------------------------------------|
Db|-8--8--8--8--8--8--8--5--5--5-/-7--3--3--3------------------------------------|
Ab|-8--8--8--8--8--8--8--5--5--5-/-7--3--3--3------------------------------------|
Db|-8--8--8--8--8--8--8--5--5--5-/-7--3--3--3------------------------------------|


   Guitarra 1               Guitarra 2

Eb|------------------------|-----------------------------------------------------|
Bb|------------------------|-----------------------------------------------------|
Gb|-10-10-10-10-8-8-8-8----|-----------------------------------------------------|
Db|-x--x--x--x--x-x-x-x----|-5--5--5--5--1--1--1--1------------------------------|
Ab|-8--8--8--8--6-6-6-6----|-3--3--3--3--1--1--1--1------------------------------|
Db|------------------------|-3--3--3--3--1--1--1--1------------------------------|
Acordes para:
    Colaboração e revisão:

    0 comentários

      mostrar mais comentários

      Conseguiu tocar?

      12tocaram1ainda não

      Grave um vídeo tocando Faint e mande pra gente!

      00:00 / 00:00
      outros vídeos desta música
      repetirqualidadeautomática
      Outro vídeos desta música
        00:00 / 00:00
        automática
        OK