Cifra Club

Aprenda

Faint

Linkin Park

Cifra: Principal (violão e guitarra)
tom: E
Afinação: Db Ab Db Gb Bb Eb

[Intro] D5  F5  Bb5  G5  A5  F5
        D5  F5  Bb5  G5  A5  F5
        D5  F5  Bb5  G5  A5  F5
        D5  F5  Bb5  G5  A5  F5

 (8ª acima)

E|-10--13---------------------------------------------|
B|---------8-10----8/3---8/3---8/3---8/3--------------|
G|----------------------------------------------------|
D|----------------------------------------------------|
A|----------------------------------------------------|
E|----------------------------------------------------|

E|-10--13---------------------------------------------|
B|---------8-10----8/3---8/3---8/3--------------------|
G|------------------------------------7--7--7--7------|
D|------------------------------------x--x--x--x------|
A|------------------------------------5--5--5--5------|
E|----------------------------------------------------|

(Guitarra 1)

E|----------------------------------------------------|
B|----------------------------------------------------|
G|-7-7-7--14-14\12-12-12-12-12--14-14\10-10-10--------|
D|-x-x-x---x--x--x--x--x--x--x---x--x-x--x--x---------|
A|-5-5-5--12-12\10-10-10-10-10--12-12\8--8--8---------|
E|----------------------------------------------------|

E|----------------------------------------------------|
B|----------------------------------------------------|
G|-7-7-7--14-14\12-12-12-12-12--14-14\10-10-10--------|
D|-x-x-x---x--x--x--x--x--x--x---x--x-x--x--x---------|
A|-5-5-5--12-12\10-10-10-10-10--12-12\8--8--8---------|
E|----------------------------------------------------|

(Guitarra 2)

E|----------------------------------------------------|
B|----------------------------------------------------|
G|----------------------------------------------------|
D|-0-0-0-0-0-0-0-0--3-3-3-3-3-3-3-3--8-8-8-8-8-8-8-8--|
A|-0-0-0-0-0-0-0-0--3-3-3-3-3-3-3-3--8-8-8-8-8-8-8-8--|
E|-0-0-0-0-0-0-0-0--3-3-3-3-3-3-3-3--8-8-8-8-8-8-8-8--|

E|----------------------------------------------------|
B|----------------------------------------------------|
G|----------------------------------------------------|
D|-5-5-5--7-7--3-3------------------------------------|
A|-5-5-5--7-7--3-3------------------------------------|
E|-5-5-5--7-7--3-3------------------------------------|

E|----------------------------------------------------|
B|----------------------------------------------------|
G|----------------------------------------------------|
D|-0-0-0-0-0-0-0-0--3-3-3-3-3-3-3-3--8-8-8-8-8-8-8-8--|
A|-0-0-0-0-0-0-0-0--3-3-3-3-3-3-3-3--8-8-8-8-8-8-8-8--|
E|-0-0-0-0-0-0-0-0--3-3-3-3-3-3-3-3--8-8-8-8-8-8-8-8--|

E|----------------------------------------------------|
B|----------------------------------------------------|
G|----------------------------------------------------|
D|-5-5-5--7-7--3-3------------------------------------|
A|-5-5-5--7-7--3-3------------------------------------|
E|-5-5-5--7-7--3-3------------------------------------|

[Primeira Parte]

D5
I am a little bit of loneliness 
   F5
A little bit of disregard
                Bb5
Handful of complaints but I can’t help the fact 
          C5
That everyone can see these scars

D5
I am what I want you to want
  F5
What I want you to feel
                  Bb5
But it's like no matter what I do
                          C5
I can't convince you, to just believe this is real

   D5
So I let go, watching you
 F5
Turn your back like you always do
 Bb5 
Face away and pretend that I'm not
    C5
But I'll be here 'cause you're all that I got

[Refrão]

D5        F5  
I can't feel 

The way I did before
Bb5  
 Don't turn your back on me
G5       A5   F5
I won't be ignored

 D5          F5  
Time won't heal 

This damage anymore
 Bb5
Don't turn your back on me
G5       A5   F5
I won't be ignored

[Segunda Parte]

  D5
I am a little bit insecure
   F5
A little unconfident
                 Bb5
'Cause you don't understand I do what I can 
         C5
But sometimes I don't make sense

  D5
I am what you never wanna say
    F5
But I've never had a doubt
              Bb5
It's like no matter what I do
                               C5
I can't convince you for once just to hear me out

   D5
So I let go watching you 
 F5
Turn your back like you always do
 Bb5
Face away and pretend that I'm not
    C5
But I'll be here, 'cause you're all that I've got

[Refrão]

D5        F5  
I can't feel 

The way I did before
Bb5  
 Don't turn your back on me
G5       A5   F5
I won't be ignored

 D5          F5  
Time won't heal 

This damage anymore
 Bb5
Don't turn your back on me
G5       A5   F5
I won't be ignored

[Ponte]

E|----------------------------------------------------|
B|----------------------------------------------------|
G|----------------------------------------------------|
D|--0--7--3-2-3-2----0-0--7--3-2-3-2------------------|
A|--0--7--3-2-3-2----0-0--7--3-2-3-2------------------|
E|--0--7--3-2-3-2----0-0--7--3-2-3-2------------------|


Now

Hear me out now

You're gonna listen to me, like it or not

Right now

Hear me out now

You're gonna listen to me, like it or not

Right now

[Refrão]

D5        F5  
I can't feel 

The way I did before
Bb5  
 Don't turn your back on me
G5       A5   F5
I won't be ignored

 D5          F5  
Time won't heal 

This damage anymore
 Bb5
Don't turn your back on me
G5       A5   F5
I won't be ignored

D5        F5  
I can't feel 

The way I did before
Bb5  
 Don't turn your back on me
G5       A5   F5
I won't be ignored

 D5          F5  
Time won't heal 

This damage anymore
 Bb5
Don't turn your back on me
G5       A5   F5
I won't be ignored
Composição de Gösta Sundqvist / J.T. Burks / Linkin Park
316.914 exibições
    • ½ Tom
    • A
    • Bb
    • B
    • C
    • Db
    • D
    • Eb
    • E
    • F
    • F#
    • G
    • Ab
  • Adicionar à lista

    0 comentários

    Ver todos os comentários
    00:00 / 00:00
    Outros vídeos desta música
    Repetir Qualidade Automático
    Outros vídeos desta música
    00:00 / 00:00
    Automático

    Cifra Club Pro

    Aproveite o Cifra Club com benefícios exclusivos e sem anúncios
    Cifra Club Pro
    Aproveite o Cifra Club com benefícios exclusivos e sem anúncios
    OK