Cifra Club

Forgotten

Linkin Park

Cifra: Principal (violão e guitarra)
Selo Cifra Club: esta cifra foi revisada para atender aos critérios oficiais da nossa Equipe de Qualidade.
tom: F
Rap Chorus - Guitars 1 and 2
|-------------------------------------------------------------------------------------------------|
|-------------------------------------------------------------------------------------------------|
|-------------------------------------------------------------------------------------------------|
|-3-----2----(x)----2----(x)----2-----x--x--x--x--3-----2----(x)----2-----------------5*----------|
|-3-----2----(x)----2----(x)----2-----x--x--x--x--3-----2----(x)----2-----------5*----------------|
|-1-----0----(x)----0----(x)----0-----x--x--x--x--1-----0----(x)----0-----------------------------|

|-------------------------------------------------------------------------------------------------|
|-------------------------------------------------------------------------------------------------|
|-------------------------------------------------------------------------------------------------|
|-3-----2----(x)----2----(x)----2-----x--x--x--x--3-----2----(x)----2-----------------------------|
|-3-----2----(x)----2----(x)----2-----x--x--x--x--3-----2----(x)----2-----------------------------|
|-1-----0----(x)----0----(x)----0-----x--x--x--x--1-----0----(x)----0-----------------------------|

|-------------------------------------------------------------------------------------------------|
|-------------------------------------------------------------------------------------------------|
|-------------------------------------------------------------------------------------------------|
|-3-----2----(x)----2----(x)----2-----x--x--x--x--3-----2----(x)----2-----------------5*----------|
|-3-----2----(x)----2----(x)----2-----x--x--x--x--3-----2----(x)----2-----------5*----------------|
|-1-----0----(x)----0----(x)----0-----x--x--x--x--1-----0----(x)----0-----------------------------|

|-------------------------------------------------------------------------------------------------|
|-------------------------------------------------------------------------------------------------|
|-------------------------------------------------------------------------------------------------|
|-3-----2----(x)----2----(x)----2-----x--x--x--x--3-----------3-----x--x--2-----x--x--5-----------|
|-3-----2----(x)----2----(x)----2-----x--x--x--x--3-----------3-----x--x--2-----x--x--5-----------|
|-1-----0----(x)----0----(x)----0-----x--x--x--x--1-----------1-----x--x--0-----x--x--3-----------|

First Verse - Guitar 3
|-------------------------------------------------------------------------------------------------|
|-------------------------------------------------------------------------------------------------|
|-------------16----------14----------------------------------12~---------------------------------|
|-------14----------14----------14----------14----------12----------------------------------------|
|-12----------------------------------12----------15----------------------------------------------|
|-------------------------------------------------------------------------------------------------|

|-------------------------------------------------------------------------------------------------|
|-------------------------------------------------------------------------------------------------|
|-------------16----------14----------------------------------------12~---------------------------|
|-------14----------14----------14----------14----14p12-------12----------------------------------|
|-12----------------------------------12----------------15----------------------------------------|
|-------------------------------------------------------------------------------------------------|

|-------------------------------------------------------------------------------------------------|
|-------------------------------------------------------------------------------------------------|
|-------------16----------14----------------------------------12~---------------------------------|
|-------14----------14----------14----------14----------12----------------------------------------|
|-12----------------------------------12----------15----------------------------------------------|
|-------------------------------------------------------------------------------------------------|

|-------------------------------------------------------------------------------------------------|
|-------------------------------------------------------------------------------------------------|
|-------------16----------14----------------------------------------12~---------------------------|
|-------14----------14----------14----------14----14p12-------12----------------------------------|
|-12----------------------------------12----------------15----------------------------------------|
|-------------------------------------------------------------------------------------------------|

Rap Chorus - Guitars 1 and 2
|-------------------------------------------------------------------------------------------------|
|-------------------------------------------------------------------------------------------------|
|-------------------------------------------------------------------------------------------------|
|-3-----2----(x)----2----(x)----2-----x--x--x--x--3-----2----(x)----2-----------------5*----------|
|-3-----2----(x)----2----(x)----2-----x--x--x--x--3-----2----(x)----2-----------5*----------------|
|-1-----0----(x)----0----(x)----0-----x--x--x--x--1-----0----(x)----0-----------------------------|

|-------------------------------------------------------------------------------------------------|
|-------------------------------------------------------------------------------------------------|
|-------------------------------------------------------------------------------------------------|
|-3-----2----(x)----2----(x)----2-----x--x--x--x--3-----------3-----x--x--2-----x--x--5-----7--7--|
|-3-----2----(x)----2----(x)----2-----x--x--x--x--3-----------3-----x--x--2-----x--x--5-----7--7--|
|-1-----0----(x)----0----(x)----0-----x--x--x--x--1-----------1-----x--x--0-----x--x--3-----5--5--|

Chorus - Guitars 1 and 2
|-------------------------------------------------------------------------------------------------|
|-------------------------------------------------------------------------------------------------|
|-------------------------9-/10-10-10-------5-----------------5-----4--4--4-/5-----5--------------|
|-7-----------7-----x--x--9-/10-10-10-------5-----------------5-----4--4--4-/5-----5-----7--7--7--|
|-7-----------7-----x--x--7-/8--8--8--------3-----------------3-----2--2--2-/3-----3-----7--7--7--|
|-5-----------5-----x--x-----------------------------------------------------------------5--5--5--|

|-------------------------------------------------------------------------------------------------|
|-------------------------------------------------------------------------------------------------|
|-------------------------9-/10-10-10-------5-----------------5-----4--4--4-/5--5--5--------------|
|-7-----------7-----x--x--9-/10-10-10-------5-----------------5-----4--4--4-/5--5--5-----7--7--7--|
|-7-----------7-----x--x--7-/8--8--8--------3-----------------3-----2--2--2-/3--3--3-----7--7--7--|
|-5-----------5-----x--x-----------------------------------------------------------------5--5--5--|

|-------------------------------------------------------------------------------------------------|
|-------------------------------------------------------------------------------------------------|
|-------------------------9-/10-10-10-------5-----------------5-----4--4--4-/5--5--5--------------|
|-7-----------7-----x--x--9-/10-10-10-------5-----------------5-----4--4--4-/5--5--5-----7--7--7--|
|-7-----------7-----x--x--7-/8--8--8--------3-----------------3-----2--2--2-/3--3--3-----7--7--7--|
|-5-----------5-----x--x-----------------------------------------------------------------5--5--5--|

|-------------------------------------------------------------------------------------------------|
|-------------------------------------------------------------------------------------------------|
|-------------------------9-/10-10-10-------5-----------------5-----4--4--4-/5--5--5--------------|
|-7-----------7-----x--x--9-/10-10-10-------5-----------------5-----4--4--4-/5--5--5--------------|
|-7-----------7-----x--x--7-/8--8--8--------3-----------------3-----2--2--2-/3--3--3--------------|
|-5-----------5-----x--x--------------------------------------------------------------------------|

Post-Chorus - Guitar 3
|-------------------------------------------------------------------------------------------------|
|-------------------------------------------------------------------------------------------------|
|-------------16----------14----------------------------------12~---------------------------------|
|-------14----------14----------14----------14----------12----------------------------------------|
|-12----------------------------------12----------15----------------------------------------------|
|-------------------------------------------------------------------------------------------------|

2nd Verse - Guitar 3
|-------------------------------------------------------------------------------------------------|
|-------------------------------------------------------------------------------------------------|
|-------------16----------14----------------------------------12~---------------------------------|
|-------14----------14----------14----------14----------12----------------------------------------|
|-12----------------------------------12----------15----------------------------------------------|
|-------------------------------------------------------------------------------------------------|

|-------------------------------------------------------------------------------------------------|
|-------------------------------------------------------------------------------------------------|
|-------------16----------14----------------------------------------12~---------------------------|
|-------14----------14----------14----------14----14p12-------12----------------------------------|
|-12----------------------------------12----------------15----------------------------------------|
|-------------------------------------------------------------------------------------------------|

|-------------------------------------------------------------------------------------------------|
|-------------------------------------------------------------------------------------------------|
|-------------16----------14----------------------------------12~---------------------------------|
|-------14----------14----------14----------14----------12----------------------------------------|
|-12----------------------------------12----------15----------------------------------------------|
|-------------------------------------------------------------------------------------------------|

|-------------------------------------------------------------------------------------------------|
|-------------------------------------------------------------------------------------------------|
|-------------16----------14----------------------------------------12~---------------------------|
|-------14----------14----------14----------14----14p12-------12----------------------------------|
|-12----------------------------------12----------------15----------------------------------------|
|-------------------------------------------------------------------------------------------------|

Rap Chorus - Guitars 1 and 2
|-------------------------------------------------------------------------------------------------|
|-------------------------------------------------------------------------------------------------|
|-------------------------------------------------------------------------------------------------|
|-3-----2----(x)----2----(x)----2-----x--x--x--x--3-----2----(x)----2-----------------5*----------|
|-3-----2----(x)----2----(x)----2-----x--x--x--x--3-----2----(x)----2-----------5*----------------|
|-1-----0----(x)----0----(x)----0-----x--x--x--x--1-----0----(x)----0-----------------------------|

|-------------------------------------------------------------------------------------------------|
|-------------------------------------------------------------------------------------------------|
|-------------------------------------------------------------------------------------------------|
|-3-----2----(x)----2----(x)----2-----x--x--x--x--3-----2----(x)----2-----------------------------|
|-3-----2----(x)----2----(x)----2-----x--x--x--x--3-----2----(x)----2-----------------------------|
|-1-----0----(x)----0----(x)----0-----x--x--x--x--1-----0----(x)----0-----------------------------|

|-------------------------------------------------------------------------------------------------|
|-------------------------------------------------------------------------------------------------|
|-------------------------------------------------------------------------------------------------|
|-3-----2----(x)----2----(x)----2-----x--x--x--x--3-----2----(x)----2-----------------5*----------|
|-3-----2----(x)----2----(x)----2-----x--x--x--x--3-----2----(x)----2-----------5*----------------|
|-1-----0----(x)----0----(x)----0-----x--x--x--x--1-----0----(x)----0-----------------------------|

|-------------------------------------------------------------------------------------------------|
|-------------------------------------------------------------------------------------------------|
|-------------------------------------------------------------------------------------------------|
|-3-----2----(x)----2----(x)----2-----x--x--x--x--3-----------3-----x--x--2-----x--x--5-----7--7--|
|-3-----2----(x)----2----(x)----2-----x--x--x--x--3-----------3-----x--x--2-----x--x--5-----7--7--|
|-1-----0----(x)----0----(x)----0-----x--x--x--x--1-----------1-----x--x--0-----x--x--3-----5--5--|

Chorus - Guitars 1 and 2
|-------------------------------------------------------------------------------------------------|
|-------------------------------------------------------------------------------------------------|
|-------------------------9-/10-10-10-------5-----------------5-----4--4--4-/5--5--5--------------|
|-7-----------7-----x--x--9-/10-10-10-------5-----------------5-----4--4--4-/5--5--5-----7--7--7--|
|-7-----------7-----x--x--7-/8--8--8--------3-----------------3-----2--2--2-/3--3--3-----7--7--7--|
|-5-----------5-----x--x-----------------------------------------------------------------5--5--5--|

|-------------------------------------------------------------------------------------------------|
|-------------------------------------------------------------------------------------------------|
|-------------------------9-/10-10-10-------5-----------------5-----4--4--4-/5--5--5--------------|
|-7-----------7-----x--x--9-/10-10-10-------5-----------------5-----4--4--4-/5--5--5-----7--7--7--|
|-7-----------7-----x--x--7-/8--8--8--------3-----------------3-----2--2--2-/3--3--3-----7--7--7--|
|-5-----------5-----x--x-----------------------------------------------------------------5--5--5--|

|-------------------------------------------------------------------------------------------------|
|-------------------------------------------------------------------------------------------------|
|-------------------------9-/10-10-10-------5-----------------5-----4--4--4-/5--5--5--------------|
|-7-----------7-----x--x--9-/10-10-10-------5-----------------5-----4--4--4-/5--5--5-----7--7--7--|
|-7-----------7-----x--x--7-/8--8--8--------3-----------------3-----2--2--2-/3--3--3-----7--7--7--|
|-5-----------5-----x--x-----------------------------------------------------------------5--5--5--|

|-------------------------------------------------------------------------------------------------|
|-------------------------------------------------------------------------------------------------|
|-------------------------9-/10-10-10-------5-----------------5-----4--4--4-/5--5--5--------------|
|-7-----------7-----x--x--9-/10-10-10-------5-----------------5-----4--4--4-/5--5--5--------------|
|-7-----------7-----x--x--7-/8--8--8--------3-----------------3-----2--2--2-/3--3--3--------------|
|-5-----------5-----x--x--------------------------------------------------------------------------|

(No guitar in breakdown)

Bridge - Guitars 1 and 2
|-------------------------------------------------------------------------------------------------|
|-------------------------------------------------------------------------------------------------|
|-------------------------------------------------------------------------------------------------|
|-------------------------------------------3-----------3-----3-----3--3--3-----3--3-----5--5-----|
|-------------------------------------------3-----------3-----3-----3--3--3-----3--3-----5--5-----|
|-------------------------------------------1-----------1-----1-----1--1--0-----0--1-----3--3-----|

|-------------------------------------------------------------------------------------------------|
|-------------------------------------------------------------------------------------------------|
|-------------------------------------------------------------------------------------------------|
|-------------------------------------------3-----------3-----3-----3--3--3-----3--3-----5--5-----|
|-------------------------------------------3-----------3-----3-----3--3--3-----3--3-----5--5-----|
|-------------------------------------------1-----------1-----1-----1--1--0-----0--1-----3--3-----|

|-------------------------------------------------------------------------------------------------|
|-------------------------------------------------------------------------------------------------|
|-------------------------------------------------------------------------------------------------|
|-7-----------7-----5--5--5--------7--------3-----------3-----3-----3--3--3-----3--3-----5--5-----|
|-7-----------7-----5--5--5--------7--------3-----------3-----3-----3--3--3-----3--3-----5--5-----|
|-5-----------5-----3--3--3--------5--------1-----------1-----1-----1--1--0-----0--1-----3--3-----|

|-------------------------------------------------------------------------------------------------|
|-------------------------------------------------------------------------------------------------|
|-------------------------------------------------------------------------------------------------|
|-7-----------7-----5--5--5--------7--------3-----------3-----3-----3--3--3-----3--3-----5--5-----|
|-7-----------7-----5--5--5--------7--------3-----------3-----3-----3--3--3-----3--3-----5--5-----|
|-5-----------5-----3--3--3--------5--------1-----------1-----1-----1--1--0-----0--1-----3--3-----|

|-------------------------------------------------------------------------------------------------|
|-------------------------------------------------------------------------------------------------|
|-------------------------------------------------------------------------------------------------|
|-7-----------7-----5--5--5--------7--------3-----------3-----3-----3--3--3-----3--3-----3--3-----|
|-7-----------7-----5--5--5--------7--------3-----------3-----3-----3--3--3-----3--3-----3--3-----|
|-5-----------5-----3--3--3--------5--------1-----------1-----1-----1--1--0-----0--1-----1--1-----|

|-------------------------------------------------------------------------------------------------|
|-------------------------------------------------------------------------------------------------|
|-------------------------------------------------------------------------------------------------|
|-3-----------3-----3--3--3--------3--------2-----------2-----2-----2--2--5-----------5-----5--5--|
|-3-----------3-----3--3--3--------3--------2-----------2-----2-----2--2--5-----------5-----5--5--|
|-1-----------1-----1--1--1--------1--------0-----------0-----0-----0--0--3-----------3-----3--3--|

Final Chorus - Guitars 1 and 2
|-------------------------------------------------------------------------------------------------|
|-------------------------------------------------------------------------------------------------|
|-------------------------9-/10-10-10-------5-----------------5-----4--4--4-/5-----5--------------|
|-7-----------7-----x--x--9-/10-10-10-------5-----------------5-----4--4--4-/5-----5-----7--7--7--|
|-7-----------7-----x--x--7-/8--8--8--------3-----------------3-----2--2--2-/3-----3-----7--7--7--|
|-5-----------5-----x--x-----------------------------------------------------------------5--5--5--|

|-------------------------------------------------------------------------------------------------|
|-------------------------------------------------------------------------------------------------|
|-------------------------9-/10-10-10-------5-----------------5-----4--4--4-/5--5--5--------------|
|-7-----------7-----x--x--9-/10-10-10-------5-----------------5-----4--4--4-/5--5--5-----7--7--7--|
|-7-----------7-----x--x--7-/8--8--8--------3-----------------3-----2--2--2-/3--3--3-----7--7--7--|
|-5-----------5-----x--x-----------------------------------------------------------------5--5--5--|

|-------------------------------------------------------------------------------------------------|
|-------------------------------------------------------------------------------------------------|
|-------------------------9-/10-10-10-------5-----------------5-----4--4--4-/5--5--5--------------|
|-7-----------7-----x--x--9-/10-10-10-------5-----------------5-----4--4--4-/5--5--5-----7--7--7--|
|-7-----------7-----x--x--7-/8--8--8--------3-----------------3-----2--2--2-/3--3--3-----7--7--7--|
|-5-----------5-----x--x-----------------------------------------------------------------5--5--5--|

|-------------------------------------------------------------------------------------------------|
|-------------------------------------------------------------------------------------------------|
|-------------------------9-/10-10-10-------5-----------------5-----4--4--4-/5--5--5--------------|
|-7-----------7-----x--x--9-/10-10-10-------5-----------------5-----4--4--4-/5--5--5-----7--7--7--|
|-7-----------7-----x--x--7-/8--8--8--------3-----------------3-----2--2--2-/3--3--3-----7--7--7--|
|-5-----------5-----x--x-----------------------------------------------------------------5--5--5--|

|-------------------------------------------------------------------------------------------------|
|-------------------------------------------------------------------------------------------------|
|-------------------------9-/10-10-10-------5-----------------5-----4--4--4-/5--5--5--------------|
|-7-----------7-----x--x--9-/10-10-10-------5-----------------5-----4--4--4-/5--5--5-----7--7--7--|
|-7-----------7-----x--x--7-/8--8--8--------3-----------------3-----2--2--2-/3--3--3-----7--7--7--|
|-5-----------5-----x--x-----------------------------------------------------------------5--5--5--|

|-------------------------------------------------------------------------------------------------|
|-------------------------------------------------------------------------------------------------|
|-------------------------9-/10-10-10-------5-----------------5-----4--4--4-/5--5--5--------------|
|-7-----------7-----x--x--9-/10-10-10-------5-----------------5-----4--4--4-/5--5--5-----7--7--7--|
|-7-----------7-----x--x--7-/8--8--8--------3-----------------3-----2--2--2-/3--3--3-----7--7--7--|
|-5-----------5-----x--x-----------------------------------------------------------------5--5--5--|

|-------------------------------------------------------------------------------------------------|
|-------------------------------------------------------------------------------------------------|
|-------------------------9-/10-10-10-------5-----------------5-----4--4--4-/5--5--5--------------|
|-7-----------7-----x--x--9-/10-10-10-------5-----------------5-----4--4--4-/5--5--5-----x--x--x--|
|-7-----------7-----x--x--7-/8--8--8--------3-----------------3-----2--2--2-/3--3--3-----x--x--x--|
|-5-----------5-----x--x-----------------------------------------------------------------x--x--x--|

Ending
|-------------------------------------------------------------------------------------------------|
|-------------------------------------------------------------------------------------------------|
|-------------------------------------------------------------------------------------------------|
|-x-----------------------------------------------------------------------------------------------|
|-x-----------------------------------------------------------------------------------------------|
|-x-----------------------------------------------------------------------------------------------|
|Guitars 1 and 2
|
|-------------------------------------------------------------------------------------------------|
|-------------------------------------------------------------------------------------------------|
|-------------------------9-/10-10-10-------5-----------------5-----x--x--4-/5-----5~-------------|
|-7-----------7-----x--x--9-/10-10-10-------5-----------------5-----x--x--4-/5-----5~-------------|
|-7-----------7-----x--x--7-/8--8--8--------3-----------------3-----x--x--2-/3-----3~-------------|
|-5-----------5-----x--x--------------------------------------------------------------------------|
|Guitar 4
Outros vídeos desta música
31.806 exibições
    • ½ Tom
    • A
    • Bb
    • B
    • C
    • Db
    • D
    • Eb
    • E
    • F
    • F#
    • G
    • Ab
  • Adicionar à lista

Afinação da cifra

Afinador online

    0 comentários

    Ver todos os comentários

    Conseguiu tocar?

    1 Tocaram 0 Ainda não

    Grave um vídeo tocando Forgotten e nos envie!

    Toque também

    1. Imagem do artista Nickelback How You Remind Me Nickelback
    2. Imagem do artista Thirty Seconds To Mars The Kill Thirty Seconds To Mars
    3. Imagem do artista Evanescence My Immortal Evanescence
    4. Imagem do artista Dead By Sunrise Let Down Dead By Sunrise

    Entre para o Cifra Club PRO

    Tenha acesso a benefícios exclusivos no App e no Site

    • Chega de anúncios

    • Mais recursos no app do Afinador

    • Atendimento Prioritário

    • Aumente seu limite de lista

    • Ajude a produzir mais conteúdo

    Cifra Club Pro

    Aproveite o Cifra Club com benefícios exclusivos e sem anúncios
    Cifra Club Pro
    Aproveite o Cifra Club com benefícios exclusivos e sem anúncios
    OK