Cifra Club

From The Inside

Linkin Park

Cifra: Principal
exibições 114.312
Tom: D
Afinação: Db Ab Db Gb Bb Eb

[Intro]

Guitarra 1

    D5
Eb|-x------------------------------------------------|
Bb|-x------------------------------------------------|
Gb|-x------------------------------------------------|
Db|(0)-----------------------------------------------|
Ab|(0)-----------------------------------------------|
Db|(0)-----------------------------------------------|


Guitarra 2

Eb|-5---5---3----5---5---3---5---5---3----5---5---3--|
Bb|---3---3---3----3---3---3---3---3---3----3---3---3|
Gb|--------------------------------------------------|
Db|--------------------------------------------------|
Ab|--------------------------------------------------|
Db|--------------------------------------------------|


[Refrão]

Guitarra 1

    D5           F5           Bb5          G5   A5
Eb|-----------------------------------------------------|
Bb|-----------------------------------------------------|
Gb|-----------------------------------------------------|
Db|00-0-000-0-0-33-3-333-3-3-88-8-888-8-8—55-5-777-7-7—-|
Ab|00-0-000-0-0-33-3-333-3-3-88-8-888-8-8—55-5-777-7-7--|
Db|00-0-000-0-0-33-3-333-3-3-88-8-888-8-8—55-5-777-7-7--|


    D5           F5            Bb5          G5   A5
Eb|-----------------------------------------------------|
Bb|-----------------------------------------------------|
Gb|-----------------------------------------------------|
Db|00-0-000-0-0-33-3-333-3-3-88-8-888-8-8—55-5-777-7-7—-|
Ab|00-0-000-0-0-33-3-333-3-3-88-8-888-8-8—55-5-777-7-7--|
Db|00-0-000-0-0-33-3-333-3-3-88-8-888-8-8—55-5-777-7-7--|


Guitarra 2

Eb|-5---5---3----5---5---3---5---5---3----5---5---3---|
Bb|---3---3---3----3---3---3---3---3---3----3---3---3-|
Gb|---------------------------------------------------|
Db|---------------------------------------------------|
Ab|---------------------------------------------------|
Db|---------------------------------------------------|


Eb|-5---5---3----5---5---3---5---5---3----5---5---3--|
Bb|---3---3---3----3---3---3---3---3---3----3---3---3|
Gb|--------------------------------------------------|
Db|--------------------------------------------------|
Ab|--------------------------------------------------|
Db|--------------------------------------------------|


[Verso]

Guitarra 2:

Eb|-17--17--17----15--15--12----17—-17--17----12--12--13--|
Bb|---15--15--15----15--15--15----15--15--15----15--15--15|
Gb|-------------------------------------------------------|  (2x)
Db|-------------------------------------------------------|
Ab|-------------------------------------------------------|
Db|-------------------------------------------------------|

              
Guitarra 2

Eb|-5---5---5----3---3---0----5---5---5----0---0---1---|
Bb|---3---3---3----3---3---3----3---3---3----3---3---3-|
Gb|----------------------------------------------------|
Db|----------------------------------------------------|
Ab|----------------------------------------------------|
Db|----------------------------------------------------|


Eb|-5---5---5----3---3---0----5---5---5----5---5---5---|
Bb|---3---3---3----3---3---3----3---3---3----3---3---3-|
Gb|----------------------------------------------------|
Db|----------------------------------------------------|
Ab|----------------------------------------------------|
Db|----------------------------------------------------|


Guitarra 1:

Eb|----------------------------------------------------|
Bb|----------------------------------------------------|
Gb|----------------------------------------------------|
Db|----------------------------------------------------|
Ab|----------------------------------------------------|
Db|----------------------------------------------------|


Eb|------------------------------------------------xxxx|
Bb|------------------------------------------------xxxx|
Gb|------------------------------------------------xxxx|
Db|------------------------------------------------xxxx|
Ab|------------------------------------------------xxxx|
Db|------------------------------------------------xxxx|


[Refrão]

Guitarra 1

    D5           F5           Bb5          G5   A5
Eb|-----------------------------------------------------|
Bb|-----------------------------------------------------|
Gb|-----------------------------------------------------|
Db|00-0-000-0-0-33-3-333-3-3-88-8-888-8-8—55-5-777-7-7—-|
Ab|00-0-000-0-0-33-3-333-3-3-88-8-888-8-8—55-5-777-7-7--|
Db|00-0-000-0-0-33-3-333-3-3-88-8-888-8-8—55-5-777-7-7--|


    D5           F5           Bb5          G5   A5
Eb|-----------------------------------------------------|
Bb|-----------------------------------------------------|
Gb|-----------------------------------------------------|
Db|00-0-000-0-0-33-3-333-3-3-88-8-888-8-8—55-5-777-7-7—-|
Ab|00-0-000-0-0-33-3-333-3-3-88-8-888-8-8—55-5-777-7-7--|
Db|00-0-000-0-0-33-3-333-3-3-88-8-888-8-8—55-5-777-7-7--|


Guitarra 2

Eb|-5---5---3----5---5---3---5---5---3----5---5---3-----|
Bb|---3---3---3----3---3---3---3---3---3----3---3---3---|
Gb|-----------------------------------------------------|
Db|-----------------------------------------------------|
Ab|-----------------------------------------------------|
Db|-----------------------------------------------------|


Eb|-5---5---3----5---5---3---5---5---3----5---5---3----|
Bb|---3---3---3----3---3---3---3---3---3----3---3---3--|
Gb|----------------------------------------------------|
Db|----------------------------------------------------|
Ab|----------------------------------------------------|
Db|----------------------------------------------------|


[Ponte]

Guitarra 1:

    D5                                     Eb5
Eb|-----------------------------------------------|
Bb|-----------------------------------------------|
Gb|-----------------------------------------------|
Db|00-0-0-------00-0-0-------00-0-0-------11-1-1--|
Ab|00-0-0-------00-0-0-------00-0-0-------11-1-1--|
Db|00-0-0-------00-0-0-------00-0-0-------11-1-1--|


Guitarra 2:

Eb|-5---5---3----5---5---3---5---5---3----5---5---|
Bb|---3---3---3----3---3---3---3---3---3----3-----|
Gb|-----------------------------------------------|
Db|-----------------------------------------------|
Ab|-----------------------------------------------|
Db|-----------------------------------------------|


Guitarra 1: 

Eb|----------------------------------------------------|
Bb|----------------------------------------------------|
Gb|-------9------------9------------9------------------|  (2x)
Db|00-0-0---0-1-00-0-0---0-1-00-0-0---0-1-11-1-111-1-1-|
Ab|00-0-0---0-1-00-0-0---0-1-00-0-0---0-1-11-1-111-1-1-|
Db|00-0-0---0-1-00-0-0---0-1-00-0-0---0-1-11-1-111-1-1-|


[Refrão]

Guitarra 1

                              Bb5          G5   A5
Eb|-----------------------------------------------------|
Bb|-----------------------------------------------------|
Gb|-----------------------------------------------------|
Db|--------------------------88-8-888-8-8—55-5-777-7-7—-|
Ab|--------------------------88-8-888-8-8—55-5-777-7-7--|
Db|--------------------------88-8-888-8-8—55-5-777-7-7--|


    D5           F5           Bb5          G5   A5
Eb|-----------------------------------------------------|
Bb|-----------------------------------------------------|
Gb|-----------------------------------------------------|
Db|00-0-000-0-0-33-3-333-3-3-88-8-888-8-8—55-5-777-7-7—-|
Ab|00-0-000-0-0-33-3-333-3-3-88-8-888-8-8—55-5-777-7-7--|
Db|00-0-000-0-0-33-3-333-3-3-88-8-888-8-8—55-5-777-7-7--|


Guitarra 2

Eb|-5---5---3----5---5---3---5---5---3----5---5---3-----|
Bb|---3---3---3----3---3---3---3---3---3----3---3---3---|
Gb|-----------------------------------------------------|
Db|-----------------------------------------------------|
Ab|-----------------------------------------------------|
Db|-----------------------------------------------------|


Eb|-5---5---3----5---5---3---5---5---3----5---5---3----|
Bb|---3---3---3----3---3---3---3---3---3----3---3---3--|
Gb|----------------------------------------------------|
Db|----------------------------------------------------|
Ab|----------------------------------------------------|
Db|----------------------------------------------------|


Guitarra 1

    D5           F5           Bb5          G5   A5
Eb|-----------------------------------------------------|
Bb|-----------------------------------------------------|
Gb|-----------------------------------------------------|
Db|00-0-000-0-0-33-3-333-3-3-88-8-888-8-8—55-5-777-7-7—-|
Ab|00-0-000-0-0-33-3-333-3-3-88-8-888-8-8—55-5-777-7-7--|
Db|00-0-000-0-0-33-3-333-3-3-88-8-888-8-8—55-5-777-7-7--|


    D5           F5           Bb5          G5   A5
Eb|-----------------------------------------------------|
Bb|-----------------------------------------------------|
Gb|-----------------------------------------------------|
Db|00-0-000-0-0-33-3-333-3-3-88-8-888-8-8—55-5-777-7-7—-|
Ab|00-0-000-0-0-33-3-333-3-3-88-8-888-8-8—55-5-777-7-7--|
Db|00-0-000-0-0-33-3-333-3-3-88-8-888-8-8—55-5-777-7-7--|


Guitarra 2

Eb|-5---5---3----5---5---3---5---5---3----5---5---3-----|
Bb|---3---3---3----3---3---3---3---3---3----3---3---3---|
Gb|-----------------------------------------------------|
Db|-----------------------------------------------------|
Ab|-----------------------------------------------------|
Db|-----------------------------------------------------|


Eb|-5---5---3----5---5---3---5---5---3----5---5---3----|
Bb|---3---3---3----3---3---3---3---3---3----3---3---3--|
Gb|----------------------------------------------------|
Db|----------------------------------------------------|
Ab|----------------------------------------------------|
Db|----------------------------------------------------|


Guitarra 1:

Eb|---------------------------------------|
Bb|---------------------------------------|
Gb|---------------------------------------|
Db|00-0-0-----00-0-0-----00-0-0-----00-0-0|
Ab|00-0-0-----00-0-0-----00-0-0-----00-0-0|
Db|00-0-0-----00-0-0-----00-0-0-----00-0-0|


Guitarra 2:

Eb|5---5---3--5---5---3—-5---5--3---------|
Bb|--3---3--3---3---3--3---3---3--3-------|
Gb|---------------------------------------|
Db|---------------------------------------|
Ab|---------------------------------------|
Db|---------------------------------------|
Acordes para:
    Colaboração e revisão:

    0 comentários

      mostrar mais comentários

      Conseguiu tocar?

      13tocaram0ainda não

      Grave um vídeo tocando From The Inside e mande pra gente!

      00:00 / 00:00
      outros vídeos desta música
      repetirqualidadeautomática
      Outro vídeos desta música
        00:00 / 00:00
        automática
        OK