Cifra Club

Lying From You

Linkin Park

Cifra: Principal (violão e guitarra)
tom: A
Intro - Guitars 1 and 2
|-------------------------------------------------------------------------------------------------|
|-------------------------------------------------------------------------------------------------|
|-------------------------------------------------------------------------------------------------|
|-------------------------------------------------------------------------------------x--x--x--x--|
|-------------------------------------------------------------------------------------x--x--x--x--|
|-------------------------------------------------------------------------------------x--x--x--x--|

|-------------------------------------------------------------------------------------------------|
|-------------------------------------------------------------------------------------------------|
|-------------------------------------------------------------------------------------------------|
|-0--2--2--1-----0-----3-----2-----1-----0--6--6--0--2--2--1-----0-----3-----2-----1-----0--6--6--|
|-0--2--2--1-----0-----3-----2-----1-----0--6--6--0--2--2--1-----0-----3-----2-----1-----0--6--6--|
|-0--2--2--1-----0-----3-----2-----1-----0--6--6--0--2--2--1-----0-----3-----2-----1-----0--6--6--|

|-------------------------------------------------------------------------------------------------|
|-------------------------------------------------------------------------------------------------|
|-------------------------------------------------------------------------------------------------|
|-0--2--2--1-----0-----3-----2-----1-----0--6--6--0--2--2--1-----0-----3-----2-----1--x--x--x--x--|
|-0--2--2--1-----0-----3-----2-----1-----0--6--6--0--2--2--1-----0-----3-----2-----1--x--x--x--x--|
|-0--2--2--1-----0-----3-----2-----1-----0--6--6--0--2--2--1-----0-----3-----2-----1--x--x--x--x--|

First Verse - Guitars 1 and 2
|-------------------------------------------------------------------------------------------------|
|-------------------------------------------------------------------------------------------------|
|-------------------------------------------------------------------------------------------------|
|-2-----2-----------------------------------------7-----7--------------------0--0-----0-----0-----|
|-2-----2-----------------------------------------5-----5--------------------0--0-----0-----0-----|
|-2-----2-----------------------------------------5-----5--------------------0--0-----0-----0-----|

|-------------------------------------------------------------------------------------------------|
|-------------------------------------------------------------------------------------------------|
|-------------------------------------------------------------------------------------------------|
|-2-----2-----------------------------------------7-----7--------------------0--0-----0-----0-----|
|-2-----2-----------------------------------------5-----5--------------------0--0-----0-----0-----|
|-2-----2-----------------------------------------5-----5--------------------0--0-----0-----0-----|

|-------------------------------------------------------------------------------------------------|
|-------------------------------------------------------------------------------------------------|
|-------------------------------------------------------------------------------------------------|
|-2-----2-----------------------------------------7-----7--------------------0--0-----0-----0-----|
|-2-----2-----------------------------------------5-----5--------------------0--0-----0-----0-----|
|-2-----2-----------------------------------------5-----5--------------------0--0-----0-----0-----|

|-------------------------------------------------------------------------------------------------|
|-------------------------------------------------------------------------------------------------|
|----------------------------------------------------------------------------11-11----11----11----|
|-2-----2-----------------------------------------7-----7-----7--7-----7-----x--x-----x-----x-----|
|-2-----2-----------------------------------------5-----5-----5--5-----5-----9--9-----9-----9-----|
|-2-----2-----------------------------------------5-----5-----5--5-----5-----7--7-----7-----7-----|

Chorus - Guitars 1 and 2
|-------------------------------------------------------------------------------------------------|
|-------------------------------------------------------------------------------------------------|
|-------------x--11-11-11-11-7--7--7--7--9--9--9--------------------------------------------------|
|-2-----2-----x--x--x--x--x--x--x--x--x--x--x--x--7-----7-----7--7-----7-----0--0-----0-----0-----|
|-2-----2-----x--9--9--9--9--5--5--5--5--7--7--7--5-----5-----5--5-----5-----0--0-----0-----0-----|
|-2-----2-----x-----------------------------------5-----5-----5--5-----5-----0--0-----0-----0-----|

|-------------------------------------------------------------------------------------------------|
|-------------------------------------------------------------------------------------------------|
|-------------x--11-11-11-11-7--7--7--7--9--9--9--------------------------------------------------|
|-5-----5-----x--x--x--x--x--x--x--x--x--x--x--x--7-----7-----7--7-----7-----0--0-----0-----0-----|
|-3-----3-----x--9--9--9--9--5--5--5--5--7--7--7--7-----7-----7--7-----7-----0--0-----0-----0-----|
|-5-----5-----x-----------------------------------7-----7-----7--7-----7-----0--0-----0-----0-----|

|-------------------------------------------------------------------------------------------------|
|-------------------------------------------------------------------------------------------------|
|-------------x--11-11-11-11-7--7--7--7--9--9--9--------------------------------------------------|
|-2-----2-----x--x--x--x--x--x--x--x--x--x--x--x--7-----7-----7--7-----7-----0--0-----0-----0-----|
|-2-----2-----x--9--9--9--9--5--5--5--5--7--7--7--5-----5-----5--5-----5-----0--0-----0-----0-----|
|-2-----2-----x-----------------------------------5-----5-----5--5-----5-----0--0-----0-----0-----|

|-------------------------------------------------------------------------------------------------|
|-------------------------------------------------------------------------------------------------|
|-------------x--11-11-11-11-7--7--7--7--9--9--9--------------------------------------------------|
|-5-----5-----x--x--x--x--x--x--x--x--x--x--x--x--7-----7-----7--7-----7-----0--0-----x--x--0-----|
|-3-----3-----x--9--9--9--9--5--5--5--5--7--7--7--7-----7-----7--7-----7-----0--0-----x--x--0-----|
|-5-----5-----x-----------------------------------7-----7-----7--7-----7-----0--0-----x--x--0-----|

2nd Verse - Guitars 1 and 2
|-------------------------------------------------------------------------------------------------|
|-------------------------------------------------------------------------------------------------|
|-------------------------------------------------------------------------------------------------|
|-2-----2-----------------------------------------7-----7--------------------0--0-----0-----0-----|
|-2-----2-----------------------------------------5-----5--------------------0--0-----0-----0-----|
|-2-----2-----------------------------------------5-----5--------------------0--0-----0-----0-----|

|-------------------------------------------------------------------------------------------------|
|-------------------------------------------------------------------------------------------------|
|-------------------------------------------------------------------------------------------------|
|-2-----2-----------------------------------------7-----7--------------------0--0-----0-----0-----|
|-2-----2-----------------------------------------5-----5--------------------0--0-----0-----0-----|
|-2-----2-----------------------------------------5-----5--------------------0--0-----0-----0-----|

|-------------------------------------------------------------------------------------------------|
|-------------------------------------------------------------------------------------------------|
|-------------------------------------------------------------------------------------------------|
|-2-----2-----------------------------------------7-----7--------------------0--0-----0-----0-----|
|-2-----2-----------------------------------------5-----5--------------------0--0-----0-----0-----|
|-2-----2-----------------------------------------5-----5--------------------0--0-----0-----0-----|

|-------------------------------------------------------------------------------------------------|
|-------------------------------------------------------------------------------------------------|
|----------------------------------------------------------------------------11-11----11----11----|
|-2-----2-----------------------------------------7-----7-----7--7-----7-----x--x-----x-----x-----|
|-2-----2-----------------------------------------5-----5-----5--5-----5-----9--9-----9-----9-----|
|-2-----2-----------------------------------------5-----5-----5--5-----5-----7--7-----7-----7-----|

Chorus - Guitars 1 and 2
|-------------------------------------------------------------------------------------------------|
|-------------------------------------------------------------------------------------------------|
|-------------x--11-11-11-11-7--7--7--7--9--9--9--------------------------------------------------|
|-2-----2-----x--x--x--x--x--x--x--x--x--x--x--x--7-----7-----7--7-----7-----0--0-----0-----0-----|
|-2-----2-----x--9--9--9--9--5--5--5--5--7--7--7--5-----5-----5--5-----5-----0--0-----0-----0-----|
|-2-----2-----x-----------------------------------5-----5-----5--5-----5-----0--0-----0-----0-----|

|-------------------------------------------------------------------------------------------------|
|-------------------------------------------------------------------------------------------------|
|-------------x--11-11-11-11-7--7--7--7--9--9--9--------------------------------------------------|
|-5-----5-----x--x--x--x--x--x--x--x--x--x--x--x--7-----7-----7--7-----7-----0--0-----0-----0-----|
|-3-----3-----x--9--9--9--9--5--5--5--5--7--7--7--7-----7-----7--7-----7-----0--0-----0-----0-----|
|-5-----5-----x-----------------------------------7-----7-----7--7-----7-----0--0-----0-----0-----|

|-------------------------------------------------------------------------------------------------|
|-------------------------------------------------------------------------------------------------|
|-------------x--11-11-11-11-7--7--7--7--9--9--9--------------------------------------------------|
|-2-----2-----x--x--x--x--x--x--x--x--x--x--x--x--7-----7-----7--7-----7-----0--0-----0-----0-----|
|-2-----2-----x--9--9--9--9--5--5--5--5--7--7--7--5-----5-----5--5-----5-----0--0-----0-----0-----|
|-2-----2-----x-----------------------------------5-----5-----5--5-----5-----0--0-----0-----0-----|

|-------------------------------------------------------------------------------------------------|
|-------------------------------------------------------------------------------------------------|
|-------------x--11-11-11-11-7--7--7--7--9--9--9--------------------------------------------------|
|-5-----5-----x--x--x--x--x--x--x--x--x--x--x--x--7-----7-----7--7-----7-----7--7-----7-----7-----|
|-3-----3-----x--9--9--9--9--5--5--5--5--7--7--7--7-----7-----7--7-----7-----7--7-----7-----7-----|
|-5-----5-----x-----------------------------------7-----7-----7--7-----7-----7--7-----7-----7-----|

|-------------------------------------------------|
|-------------------------------------------------|
|-------------------------------------------------|
|-7-----7-----7--7-----7-----0--0-----x--x--x--x--|
|-7-----7-----7--7-----7-----0--0-----x--x--x--x--|
|-7-----7-----7--7-----7-----0--0-----x--x--x--x--|

Bridge - Guitars 1 and 2
|-------------------------------------------------------------------------------------------------|
|-------------------------------------------------------------------------------------------------|
|-------------------------------------------------------------------------------------------------|
|-0--2--2--1-----0-----3-----2-----1-----0--6--6--0--2--2--1-----0-----3-----2-----1-----0--6--6--|
|-0--2--2--1-----0-----3-----2-----1-----0--6--6--0--2--2--1-----0-----3-----2-----1-----0--6--6--|
|-0--2--2--1-----0-----3-----2-----1-----0--6--6--0--2--2--1-----0-----3-----2-----1-----0--6--6--|

|-------------------------------------------------------------------------------------------------|
|-------------------------------------------------------------------------------------------------|
|-------------------------------------------------------------------------------------------------|
|-0--2--2--1-----0-----3-----2-----1-----0--6--6--0--2--2--1-----0-----3-----2-----1--x--x--x--x--|
|-0--2--2--1-----0-----3-----2-----1-----0--6--6--0--2--2--1-----0-----3-----2-----1--x--x--x--x--|
|-0--2--2--1-----0-----3-----2-----1-----0--6--6--0--2--2--1-----0-----3-----2-----1--x--x--x--x--|

|-------------------------------------------------------------------------------------------------|
|-------------------------------------------------------------------------------------------------|
|-------------------------------------------------------------------------------------------------|
|-0--2--2--1-----0-----3-----2-----1-----0--6--6--0--2--2--1-----0-----3-----2-----1-----0--6--6--|
|-0--2--2--1-----0-----3-----2-----1-----0--6--6--0--2--2--1-----0-----3-----2-----1-----0--6--6--|
|-0--2--2--1-----0-----3-----2-----1-----0--6--6--0--2--2--1-----0-----3-----2-----1-----0--6--6--|

|-------------------------------------------------------------------------------------------------|
|-------------------------------------------------------------------------------------------------|
|-------------------------------------------------------------------------------------------------|
|-0--2--2--1-----0-----3-----2-----1-----0--6--6--0--2--2--1-----0-----3-----2-----1--x--x--x--x--|
|-0--2--2--1-----0-----3-----2-----1-----0--6--6--0--2--2--1-----0-----3-----2-----1--x--x--x--x--|
|-0--2--2--1-----0-----3-----2-----1-----0--6--6--0--2--2--1-----0-----3-----2-----1--x--x--x--x--|

Final Chorus - Guitars 1 and 2
|-------------------------------------------------------------------------------------------------|
|-------------------------------------------------------------------------------------------------|
|-------------x--11-11-11-11-7--7--7--7--9--9--9--------------------------------------------------|
|-2-----2-----x--x--x--x--x--x--x--x--x--x--x--x--7-----7-----7--7-----7-----0--0-----0-----0-----|
|-2-----2-----x--9--9--9--9--5--5--5--5--7--7--7--5-----5-----5--5-----5-----0--0-----0-----0-----|
|-2-----2-----x-----------------------------------5-----5-----5--5-----5-----0--0-----0-----0-----|

|-------------------------------------------------------------------------------------------------|
|-------------------------------------------------------------------------------------------------|
|-------------x--11-11-11-11-7--7--7--7--9--9--9--------------------------------------------------|
|-5-----5-----x--x--x--x--x--x--x--x--x--x--x--x--7-----7-----7--7-----7-----0--0-----0-----0-----|
|-3-----3-----x--9--9--9--9--5--5--5--5--7--7--7--7-----7-----7--7-----7-----0--0-----0-----0-----|
|-5-----5-----x-----------------------------------7-----7-----7--7-----7-----0--0-----0-----0-----|

|-------------------------------------------------------------------------------------------------|
|-------------------------------------------------------------------------------------------------|
|-------------x--11-11-11-11-7--7--7--7--9--9--9--------------------------------------------------|
|-2-----2-----x--x--x--x--x--x--x--x--x--x--x--x--7-----7-----7--7-----7-----0--0-----0-----0-----|
|-2-----2-----x--9--9--9--9--5--5--5--5--7--7--7--5-----5-----5--5-----5-----0--0-----0-----0-----|
|-2-----2-----x-----------------------------------5-----5-----5--5-----5-----0--0-----0-----0-----|

|-------------------------------------------------------------------------------------------------|
|-------------------------------------------------------------------------------------------------|
|-------------x--11-11-11-11-7--7--7--7--9--9--9--------------------------------------------------|
|-5-----5-----x--x--x--x--x--x--x--x--x--x--x--x--7-----7-----7--7-----7-----7--7-----7-----7-----|
|-3-----3-----x--9--9--9--9--5--5--5--5--7--7--7--7-----7-----7--7-----7-----7--7-----7-----7-----|
|-5-----5-----x-----------------------------------7-----7-----7--7-----7-----7--7-----7-----7-----|

|-------------------------------------------------------------------------------------------------|
|-------------------------------------------------------------------------------------------------|
|-------------------------------------------------------------------------------------------------|
|-7-----7-----7--7-----7-----0--0-----x--x--0-----------------------------------------------------|
|-7-----7-----7--7-----7-----0--0-----x--x--0-----------------------------------------------------|
|-7-----7-----7--7-----7-----0--0-----x--x--0-----------------------------------------------------|
00:00 / 00:00
Outros vídeos desta música
Repetir
Outros vídeos desta música
Composição de Bradford Philip Delson / Chester Charles Bennington / David Michael Farrell / Joseph Hahn / Michael Kenji Shinoda / Robert Gregory Bourdon
Colaboração e revisão:
  • Douglas Felipe
  • WILLIAM
60.534 exibições
    • ½ Tom
    • A
    • Bb
    • B
    • C
    • Db
    • D
    • Eb
    • E
    • F
    • F#
    • G
    • Ab
  • Adicionar à lista

    0 comentários

    Ver todos os comentários

    Conseguiu tocar?

    4 Tocaram 0 Ainda não

    Grave um vídeo tocando Lying From You e nos envie!

    Entre para oCifra Club PRO

    Tenha acesso a benefícios exclusivos no App e no Site

    • Chega de anúncios

    • Prioridade de compra em lançamentos

    • Mais recursos no app do Afinador

    • Atendimento Prioritário

    • Descontos nos produtos Cifra Club

    • Ajude a produzir mais conteúdo

    00:00 / 00:00

    Cifra Club Pro

    Aproveite o Cifra Club com benefícios exclusivos e sem anúncios
    Cifra Club Pro
    Aproveite o Cifra Club com benefícios exclusivos e sem anúncios
    OK