Enviar cifraEntrar

New Divide

Linkin Park

Cifra: Principal
exibições 126.916
Tom: E
(No guitar until 0:15)

Intro - Guitars 1 and 2

|-------------------------------------------------------------------------------------------------|
|-------------------------------------------------------------------------------------------------|
|------------(fade in)----11v~--------------------------------------------------------------------|
|-------------------------------------------------------------------------------------------------|
|-------------------------------------------------------------------------------------------------|
|-------------------------------------------------------------------------------------------------|


Heavy Intro - Guitars 1 and 2

|-------------------------------------------------------------------------------------------------|
|-------------------------------------------------------------------------------------------------|
|-11----11----11----11----11----11----11----11----11----11----11----11----11----11----11----11----|
|-x-----x-----x-----x-----x-----x-----x-----x-----x-----x-----x-----x-----x-----x-----x-----x-----|
|-9-----9-----9-----9-----9-----9-----9-----9-----9-----9-----9-----9-----9-----9-----9-----9-----|
|-------------------------------------------------------------------------------------------------|


|-------------------------------------------------------------------------------------------------|
|-------------------------------------------------------------------------------------------------|
|-9-----9-----9-----9-----9-----9-----9-----9-----13----13----13----13----13----13----13----13----|
|-x-----x-----x-----x-----x-----x-----x-----x-----x-----x-----x-----x-----x-----x-----x-----x-----|
|-7-----7-----7-----7-----7-----7-----7-----7-----11----11----11----11----11----11----11----11----|
|-------------------------------------------------------------------------------------------------|


|-------------------------------------------------------------------------------------------------|
|-------------------------------------------------------------------------------------------------|
|-11----11----11----11----11----11----11----11----11----11----11----11----11----11----11----11----|
|-x-----x-----x-----x-----x-----x-----x-----x-----x-----x-----x-----x-----x-----x-----x-----x-----|
|-9-----9-----9-----9-----9-----9-----9-----9-----9-----9-----9-----9-----9-----9-----9-----9-----|
|-------------------------------------------------------------------------------------------------|


|-------------------------------------------------------------------------------------------------|
|-------------------------------------------------------------------------------------------------|
|-9-----9-----9-----9-----9-----9-----9-----9-----13----13----13----13----13----13----13----13----|
|-x-----x-----x-----x-----x-----x-----x-----x-----x-----x-----x-----x-----x-----x-----x-----x-----|
|-7-----7-----7-----7-----7-----7-----7-----7-----11----11----11----11----11----11----11----11----|
|-------------------------------------------------------------------------------------------------|


First Verse - Guitars 1 and 2

|-------------------------------------------------------------------------------------------------|
|-------------------------------------------------------------------------------------------------|
|-11~---------------------------------------------------------------------------------------------|
|-x------(fade out)-------------------------------------------------------------------------------|
|-9~----------------------------------------------------------------------------------------------|
|-------------------------------------------------------------------------------------------------|


(No guitar in rest of verse)

Pre-Chorus - Guitars 1 and 2

|-------------------------------------------------------------------------------------------------|
|-------------------------------------------------------------------------------------------------|
|------------(fade in)----11v~--------------------------------------------------------------------|
|-------------------------------------------------------------------------------------------------|
|-------------------------------------------------------------------------------------------------|
|-------------------------------------------------------------------------------------------------|


Chorus - Guitars 1 and 2

|-------------------------------------------------------------------------------------------------|
|-------------------------------------------------------------------------------------------------|
|-11----11----11----11----11----11----11----11----11----11----11----11----11----11----11----11----|
|-x-----x-----x-----x-----x-----x-----x-----x-----x-----x-----x-----x-----x-----x-----x-----x-----|
|-9-----9-----9-----9-----9-----9-----9-----9-----9-----9-----9-----9-----9-----9-----9-----9-----|
|-------------------------------------------------------------------------------------------------|


|-------------------------------------------------------------------------------------------------|
|-------------------------------------------------------------------------------------------------|
|-13----13----13----13----13----13----13----13----11----11----11----11----11----11----11----11-11-|
|-x-----x-----x-----x-----x-----x-----x-----x-----x-----x-----x-----x-----x-----x-----x-----x--x--|
|-11----11----11----11----11----11----11----11----9-----9-----9-----9-----9-----9-----9-----9--9--|
|-------------------------------------------------------------------------------------------------|


|-------------------------------------------------------------------------------------------------|
|-------------------------------------------------------------------------------------------------|
|-11----11----11----11----11----11----11----11----9-----9-----9-----9-----9-----9-----9-----9-----|
|-x-----x-----x-----x-----x-----x-----x-----x-----x-----x-----x-----x-----x-----x-----x-----x-----|
|-9-----9-----9-----9-----9-----9-----9-----9-----7-----7-----7-----7-----7-----7-----7-----7-----|
|-------------------------------------------------------------------------------------------------|


|-------------------------------------------------------------------------------------------------|
|-------------------------------------------------------------------------------------------------|
|-13----13----13----13----13----13----13----13----14----14----14----14----13----13----13----13----|
|-x-----x-----x-----x-----x-----x-----x-----x-----x-----x-----x-----x-----x-----x-----x-----x-----|
|-11----11----11----11----11----11----11----11----12----12----12----12----11----11----11----11----|
|-------------------------------------------------------------------------------------------------|


|-------------------------------------------------------------------------------------------------|
|-------------------------------------------------------------------------------------------------|
|-11----11----11----11----11----11----11----11----9-----9-----9-----9-----9-----9-----9-----9-----|
|-x-----x-----x-----x-----x-----x-----x-----x-----x-----x-----x-----x-----x-----x-----x-----x-----|
|-9-----9-----9-----9-----9-----9-----9-----9-----7-----7-----7-----7-----7-----7-----7-----7-----|
|-------------------------------------------------------------------------------------------------|


|-------------------------------------------------------------------------------------------------|
|-------------------------------------------------------------------------------------------------|
|-13----13----13----13----13----13----13----13----11----11----11----11----11----11----11----11----|
|-x-----x-----x-----x-----x-----x-----x-----x-----x-----x-----x-----x-----x-----x-----x-----x-----|
|-11----11----11----11----11----11----11----11----9-----9-----9-----9-----9-----9-----9-----9-----|
|-------------------------------------------------------------------------------------------------|


|-------------------------------------------------------------------------------------------------|
|-------------------------------------------------------------------------------------------------|
|-14----14----14----14----14----14----14----14----14----14----14----14----14----14----14----14----|
|-x-----x-----x-----x-----x-----x-----x-----x-----x-----x-----x-----x-----x-----x-----x-----x-----|
|-12----12----12----12----12----12----12----12----12----12----12----12----12----12----12----12----|
|-------------------------------------------------------------------------------------------------|


|-------------------------------------------------------------------------------------------------|
|-------------------------------------------------------------------------------------------------|
|-16----16----16----16----16----16----16----16----16----16----16----16----16----16----16----16----|
|-x-----x-----x-----x-----x-----x-----x-----x-----x-----x-----x-----x-----x-----x-----x-----x-----|
|-14----14----14----14----14----14----14----14----14----14----14----14----14----14----14----14----|
|-------------------------------------------------------------------------------------------------|


Post-Chorus - Guitars 1 and 2

|-------------------------------------------------------------------------------------------------|
|-------------------------------------------------------------------------------------------------|
|-11----11----11----11----11----11----11----11----11----11----11----11----11----11----11----11----|
|-x-----x-----x-----x-----x-----x-----x-----x-----x-----x-----x-----x-----x-----x-----x-----x-----|
|-9-----9-----9-----9-----9-----9-----9-----9-----9-----9-----9-----9-----9-----9-----9-----9-----|
|-------------------------------------------------------------------------------------------------|


|-------------------------------------------------------------------------------------------------|
|-------------------------------------------------------------------------------------------------|
|-9-----9-----9-----9-----9-----9-----9-----9-----13----13----13----13----13----13----13----13----|
|-x-----x-----x-----x-----x-----x-----x-----x-----x-----x-----x-----x-----x-----x-----x-----x-----|
|-7-----7-----7-----7-----7-----7-----7-----7-----11----11----11----11----11----11----11----11----|
|-------------------------------------------------------------------------------------------------|


2nd Verse - Guitars 1 and 2

|-------------------------------------------------------------------------------------------------|
|-------------------------------------------------------------------------------------------------|
|-11~---------------------------------------------------------------------------------------------|
|-x------(fade out)-------------------------------------------------------------------------------|
|-9~----------------------------------------------------------------------------------------------|
|-------------------------------------------------------------------------------------------------|


(No guitar in rest of verse)

Pre-Chorus - Guitars 1 and 2

|-------------------------------------------------------------------------------------------------|
|-------------------------------------------------------------------------------------------------|
|------------(fade in)----11v~--------------------------------------------------------------------|
|-------------------------------------------------------------------------------------------------|
|-------------------------------------------------------------------------------------------------|
|-------------------------------------------------------------------------------------------------|


Chorus - Guitars 1 and 2

|-------------------------------------------------------------------------------------------------|
|-------------------------------------------------------------------------------------------------|
|-11----11----11----11----11----11----11----11----11----11----11----11----11----11----11----11----|
|-x-----x-----x-----x-----x-----x-----x-----x-----x-----x-----x-----x-----x-----x-----x-----x-----|
|-9-----9-----9-----9-----9-----9-----9-----9-----9-----9-----9-----9-----9-----9-----9-----9-----|
|-------------------------------------------------------------------------------------------------|


|-------------------------------------------------------------------------------------------------|
|-------------------------------------------------------------------------------------------------|
|-13----13----13----13----13----13----13----13----11----11----11----11----11----11----11----11-11-|
|-x-----x-----x-----x-----x-----x-----x-----x-----x-----x-----x-----x-----x-----x-----x-----x--x--|
|-11----11----11----11----11----11----11----11----9-----9-----9-----9-----9-----9-----9-----9--9--|
|-------------------------------------------------------------------------------------------------|


|-------------------------------------------------------------------------------------------------|
|-------------------------------------------------------------------------------------------------|
|-11----11----11----11----11----11----11----11----9-----9-----9-----9-----9-----9-----9-----9-----|
|-x-----x-----x-----x-----x-----x-----x-----x-----x-----x-----x-----x-----x-----x-----x-----x-----|
|-9-----9-----9-----9-----9-----9-----9-----9-----7-----7-----7-----7-----7-----7-----7-----7-----|
|-------------------------------------------------------------------------------------------------|


|-------------------------------------------------------------------------------------------------|
|-------------------------------------------------------------------------------------------------|
|-13----13----13----13----13----13----13----13----14----14----14----14----13----13----13----13----|
|-x-----x-----x-----x-----x-----x-----x-----x-----x-----x-----x-----x-----x-----x-----x-----x-----|
|-11----11----11----11----11----11----11----11----12----12----12----12----11----11----11----11----|
|-------------------------------------------------------------------------------------------------|


Breakdown - Guitar 3

|-------------------------------------------------------------------------------------------------|
|-------------------------------------------------------------------------------------------------|
|----------------------4b5---------------------------------------------------------------------|
|-------------x--x--------------x--x--------------------------7-----x--x--x/----------------7--7--|
|-------------x--x--------------x--x--0-----2----/7v~---------0-----x--x--x/----------------------|
|-4-----4-----x--x--------------x--x--------------------------------x--x--x/----7v----7v----------|


|-------------------------------------------------------------------------------------------------|
|-------------------------------------------------------------------------------------------------|
|----------------------4b5---------------------------------------------------------------------|
|-------------x--x--------------x--x--------------------------7-----x--x--x/----------------7--7--|
|-------------x--x--------------x--x--0-----2----/7v~---------0-----x--x--x/----------------------|
|-4-----4-----x--x--------------x--x--------------------------------x--x--x/----7v----7v----------|


|-------------------------------------------------------------------------------------------------|
|-------------------------------------------------------------------------------------------------|
|----------------------4b5---------------------------------------------------------------------|
|-------------x--x--------------x--x--------------------------7-----x--x--x/----------------7--7--|
|-------------x--x--------------x--x--0-----2----/7v~---------0-----x--x--x/----------------------|
|-4-----4-----x--x--------------x--x--------------------------------x--x--x/----7v----7v----------|


|-------------------------------------------------------------------------------------------------|
|-------------------------------------------------------------------------------------------------|
|------------(fade in)----11v~--------------------------------------------------------------------|
|-------------------------------------------------------------------------------------------------|
|-------------------------------------------------------------------------------------------------|
|-------------------------------------------------------------------------------------------------|

|Guitars 1 and 2
|
|-------------------------------------------------------------------------------------------------|
|-------------------------------------------------------------------------------------------------|
|----------------------4b5---------------------------------------------------------------------|
|-------------x--x--------------x--x--------------------------7-----x--x--7-----------------------|
|-------------x--x--------------x--x--0-----2----/7v~---------0-----x--x--0-----------------------|
|-4-----4-----x--x--------------x--x--------------------------------x--x--------4-----4-----4\----|
|Guitar 3

Bridge - Guitars 1 and 2

|-------------------------------------------------------------------------------------------------|
|-------------------------------------------------------------------------------------------------|
|-11----11----11----11----11----11----11----11----11----11----11----11----11----11----11----11----|
|-x-----x-----x-----x-----x-----x-----x-----x-----x-----x-----x-----x-----x-----x-----x-----x-----|
|-9-----9-----9-----9-----9-----9-----9-----9-----9-----9-----9-----9-----9-----9-----9-----9-----|
|-------------------------------------------------------------------------------------------------|


|-------------------------------------------------------------------------------------------------|
|-------------------------------------------------------------------------------------------------|
|-9-----9-----9-----9-----9-----9-----9-----9-----13----13----13----13----13----13----13----13----|
|-x-----x-----x-----x-----x-----x-----x-----x-----x-----x-----x-----x-----x-----x-----x-----x-----|
|-7-----7-----7-----7-----7-----7-----7-----7-----11----11----11----11----11----11----11----11----|
|-------------------------------------------------------------------------------------------------|


|-------------------------------------------------------------------------------------------------|
|-------------------------------------------------------------------------------------------------|
|-11----11----11----11----11----11----11----11----11----11----11----11----11----11----11----11----|
|-x-----x-----x-----x-----x-----x-----x-----x-----x-----x-----x-----x-----x-----x-----x-----x-----|
|-9-----9-----9-----9-----9-----9-----9-----9-----9-----9-----9-----9-----9-----9-----9-----9-----|
|-------------------------------------------------------------------------------------------------|


|-------------------------------------------------------------------------------------------------|
|-------------------------------------------------------------------------------------------------|
|-9-----9-----9-----9-----9-----9-----9-----9-----13----13----13----13----13----13----13----13----|
|-x-----x-----x-----x-----x-----x-----x-----x-----x-----x-----x-----x-----x-----x-----x-----x-----|
|-7-----7-----7-----7-----7-----7-----7-----7-----11----11----11----11----11----11----11----11----|
|-------------------------------------------------------------------------------------------------|


|-------------------------------------------------------------------------------------------------|
|-------------------------------------------------------------------------------------------------|
|-11----11----11----11----13----13----13----13----14----14----14----14----16----16----16----16----|
|-x-----x-----x-----x-----x-----x-----x-----x-----x-----x-----x-----x-----x-----x-----x-----x-----|
|-9-----9-----9-----9-----11----11----11----11----12----12----12----12----14----14----14----14----|
|-------------------------------------------------------------------------------------------------|


|-------------------------------------------------------------------------------------------------|
|-------------------------------------------------------------------------------------------------|
|-11----11----11----11----13----13----13----13----14----14----14----14----16----16----16----16----|
|-x-----x-----x-----x-----x-----x-----x-----x-----x-----x-----x-----x-----x-----x-----x-----x-----|
|-9-----9-----9-----9-----11----11----11----11----12----12----12----12----14----14----14----14----|
|-------------------------------------------------------------------------------------------------|


Final Chorus - Guitars 1 and 2

|-------------------------------------------------------------------------------------------------|
|-------------------------------------------------------------------------------------------------|
|-11----11----11----11----11----11----11----11----11----11----11----11----11----11----11----11----|
|-x-----x-----x-----x-----x-----x-----x-----x-----x-----x-----x-----x-----x-----x-----x-----x-----|
|-9-----9-----9-----9-----9-----9-----9-----9-----9-----9-----9-----9-----9-----9-----9-----9-----|
|-------------------------------------------------------------------------------------------------|


|-------------------------------------------------------------------------------------------------|
|-------------------------------------------------------------------------------------------------|
|-13----13----13----13----13----13----13----13----11----11----11----11----11----11----11----11-11-|
|-x-----x-----x-----x-----x-----x-----x-----x-----x-----x-----x-----x-----x-----x-----x-----x--x--|
|-11----11----11----11----11----11----11----11----9-----9-----9-----9-----9-----9-----9-----9--9--|
|-------------------------------------------------------------------------------------------------|


|-------------------------------------------------------------------------------------------------|
|-------------------------------------------------------------------------------------------------|
|-11----11----11----11----11----11----11----11----9-----9-----9-----9-----9-----9-----9-----9-----|
|-x-----x-----x-----x-----x-----x-----x-----x-----x-----x-----x-----x-----x-----x-----x-----x-----|
|-9-----9-----9-----9-----9-----9-----9-----9-----7-----7-----7-----7-----7-----7-----7-----7-----|
|-------------------------------------------------------------------------------------------------|


|-------------------------------------------------------------------------------------------------|
|-------------------------------------------------------------------------------------------------|
|-13----13----13----13----13----13----13----13----14----14----14----14----13----13----13----13----|
|-x-----x-----x-----x-----x-----x-----x-----x-----x-----x-----x-----x-----x-----x-----x-----x-----|
|-11----11----11----11----11----11----11----11----12----12----12----12----11----11----11----11----|
|-------------------------------------------------------------------------------------------------|


|-------------------------------------------------------------------------------------------------|
|-------------------------------------------------------------------------------------------------|
|-11----11----11----11----11----11----11----11----9-----9-----9-----9-----9-----9-----9-----9-----|
|-x-----x-----x-----x-----x-----x-----x-----x-----x-----x-----x-----x-----x-----x-----x-----x-----|
|-9-----9-----9-----9-----9-----9-----9-----9-----7-----7-----7-----7-----7-----7-----7-----7-----|
|-------------------------------------------------------------------------------------------------|


|-------------------------------------------------------------------------------------------------|
|-------------------------------------------------------------------------------------------------|
|-13----13----13----13----13----13----13----13----11----11----11----11----11----11----11----11----|
|-x-----x-----x-----x-----x-----x-----x-----x-----x-----x-----x-----x-----x-----x-----x-----x-----|
|-11----11----11----11----11----11----11----11----9-----9-----9-----9-----9-----9-----9-----9-----|
|-------------------------------------------------------------------------------------------------|


|-------------------------------------------------------------------------------------------------|
|-------------------------------------------------------------------------------------------------|
|-14----14----14----14----14----14----14----14----14----14----14----14----14----14----14----14----|
|-x-----x-----x-----x-----x-----x-----x-----x-----x-----x-----x-----x-----x-----x-----x-----x-----|
|-12----12----12----12----12----12----12----12----12----12----12----12----12----12----12----12----|
|-------------------------------------------------------------------------------------------------|


|-------------------------------------------------------------------------------------------------|
|-------------------------------------------------------------------------------------------------|
|-16----16----16----16----16----16----16----16----16----16----16----16----16----16----16----16----|
|-x-----x-----x-----x-----x-----x-----x-----x-----x-----x-----x-----x-----x-----x-----x-----x-----|
|-14----14----14----14----14----14----14----14----14----14----14----14----14----14----14----14----|
|-------------------------------------------------------------------------------------------------|


Outro - Guitars 1 and 2

|-------------------------------------------------------------------------------------------------|
|-------------------------------------------------------------------------------------------------|
|-11----11----11----11----11----11----11----11----11----11----11----11----11----11----11----11----|
|-x-----x-----x-----x-----x-----x-----x-----x-----x-----x-----x-----x-----x-----x-----x-----x-----|
|-9-----9-----9-----9-----9-----9-----9-----9-----9-----9-----9-----9-----9-----9-----9-----9-----|
|-------------------------------------------------------------------------------------------------|


|-------------------------------------------------------------------------------------------------|
|-------------------------------------------------------------------------------------------------|
|-9-----9-----9-----9-----9-----9-----9-----9-----13----13----13----13----13----13----13----13----|
|-x-----x-----x-----x-----x-----x-----x-----x-----x-----x-----x-----x-----x-----x-----x-----x-----|
|-7-----7-----7-----7-----7-----7-----7-----7-----11----11----11----11----11----11----11----11----|
|-------------------------------------------------------------------------------------------------|


|-------------------------------------------------------------------------------------------------|
|-------------------------------------------------------------------------------------------------|
|-11----11----11----11----11----11----11----11----11----11----11----11----11----11----11----11----|
|-x-----x-----x-----x-----x-----x-----x-----x-----x-----x-----x-----x-----x-----x-----x-----x-----|
|-9-----9-----9-----9-----9-----9-----9-----9-----9-----9-----9-----9-----9-----9-----9-----9-----|
|-------------------------------------------------------------------------------------------------|


|-------------------------------------------------------------------------------------------------|
|-------------------------------------------------------------------------------------------------|
|-9-----9-----9-----9-----9-----9-----9-----9-----13----13----13----13----13----13----13----13----|
|-x-----x-----x-----x-----x-----x-----x-----x-----x-----x-----x-----x-----x-----x-----x-----x-----|
|-7-----7-----7-----7-----7-----7-----7-----7-----11----11----11----11----11----11----11----11----|
|-------------------------------------------------------------------------------------------------|


Ending - Guitars 1 and 2

|-------------------------------------------------------------------------------------------------|
|-------------------------------------------------------------------------------------------------|
|-11~---------------------------------------------------------------------------------------------|
|-x------(fade out)-------------------------------------------------------------------------------|
|-9~----------------------------------------------------------------------------------------------|
|-------------------------------------------------------------------------------------------------|
  • 1
  • 2
  • 3
  • 4
  • 5
  • 6
  • 7
  • 8
  • 9
  • 10
  • 11
  • 12
    Acordes para:
      Composição: Mike Shinoda / Chester BenningtonColaboração e revisão:
      • douglas.felipe.9849912
      • ique
      • guilhermenight

      0 comentários

        mostrar mais comentários

        Conseguiu tocar?

        14tocaram0ainda não

        Grave um vídeo tocando New Divide e mande pra gente!

        00:00 / 00:00
        outros vídeos desta música
        repetirqualidadeautomática
        • automática
        Outro vídeos desta música
          00:00 / 00:00
          automática
          • automática
          1 versão de Tab de baixoexibiçõescontribuições
          1 versão de Tab de bateriaexibiçõescontribuições
          1 versão de Guitar Proformatodownloadscontribuição
          2 versões de Partiturasformatodownloadscontribuição
          fecharplay/pause subir/descer velocidade
            acordes
            fechar
            OK
            Feedback