Cifra Club

New Divide

Linkin Park

Cifra: Principal
exibições 136.925
Tom: D
Afinação:
Guitarra 1: E A D G B E
Guitarra 2: E A D G B E
Guitarra 3: D A D G B E

[Intro]

Guitarra 1

E|-------------------------------------------------------------------------|
B|-------------------------------------------------------------------------|
G|-------------------------------------------------------------------------| (4x) 
D|--6---------------10---------------13-----------------10-----------------|
A|-----8----------------8----------------13-----------------8--------------|
E|-------------------------------------------------------------------------|


Guitarra 2

E|-------------------------------------------------------------------------|
B|-------------------------------------------------------------------------|
G|-----10---play this----------8--then this----------12--then this---------| (2x)
D|------x---16 times-----------x---8 times------------x---8 times----------|
A|------8----------------------6---------------------10--------------------|
E|-------------------------------------------------------------------------|


Guitarra 3

E|-------------------------------------------------------------------------|
B|-------------------------------------------------------------------------|
G|-------------------------------------------------------------------------|  (2x)
D|---3-3-3-3-3-3-3-3-6-6-6-6-6-6-6-6-1-1-1-1-1-1-1-1-8-8-8-8-8-8-10-10-----|
A|---3-3-3-3-3-3-3-3-6-6-6-6-6-6-6-6-1-1-1-1-1-1-1-1-8-8-8-8-8-8-10-10-----|
D|---3-3-3-3-3-3-3-3-6-6-6-6-6-6-6-6-1-1-1-1-1-1-1-1-8-8-8-8-8-8-10-10-----|


[Refrão]

Guitarra 2

E|-------------------------------------------------------------------------|
B|-------------------------------------------------------------------------|
G|----10---play this---------12---then this---------10---then this---------|
D|-----x---16 times-----------x----8 times-----------x----8 times----------|
A|-----8---------------------10----------------------8---------------------|
E|-------------------------------------------------------------------------|


Guitarra 3

E|-------------------------------------------------------------------------|
B|-------------------------------------------------------------------------|
G|-------------------------------------------------------------------------|
D|----3-3-3-3-3-3-3-3-3-3-3-3-3-3-3-3-1-1-1-1-1-1-1-1-8-8-8-8-8-8-8-8------|
A|----3-3-3-3-3-3-3-3-3-3-3-3-3-3-3-3-1-1-1-1-1-1-1-1-8-8-8-8-8-8-8-8------|
D|----3-3-3-3-3-3-3-3-3-3-3-3-3-3-3-3-1-1-1-1-1-1-1-1-8-8-8-8-8-8-8-8------|


Guitarra 2
E|-------------------------------------------------------------------------|
B|-------------------------------------------------------------------------|
G|-10-play this---8-then this---12-then this---13-then this---12-then this-|
D|--x-8 times-----x-8 times------x--8 times-----x--4 times-----x--4 times--|
A|--8-------------6-------------10-------------11-------------10-----------|
E|-------------------------------------------------------------------------|

Guitarra 3

E|-------------------------------------------------------------------------|
B|-------------------------------------------------------------------------|
G|-------------------------------------------------------------------------|
D|----3-3-3-3-3-3-3-3-6-6-6-6-6-6-6-6-1-1-1-1-1-1-1-1-1-1-1-1-1-1-1-1------|
A|----3-3-3-3-3-3-3-3-6-6-6-6-6-6-6-6-1-1-1-1-1-1-1-1-1-1-1-1-1-1-1-1------|
D|----3-3-3-3-3-3-3-3-6-6-6-6-6-6-6-6-1-1-1-1-1-1-1-1-1-1-1-1-1-1-1-1------|


Guitarra 2
E|-------------------------------------------------------------------------|
B|-------------------------------------------------------------------------|
G|--10--play this-----8--then this-----12--then this-----10--then this-----|
D|---x--8 times-------x--8 times--------x--8 times--------x--8 times-------|
A|---8----------------6----------------10-----------------8----------------|
E|-------------------------------------------------------------------------|

Guitarra 3

E|-------------------------------------------------------------------------|
B|-------------------------------------------------------------------------|
G|-------------------------------------------------------------------------|
D|---3-3-3-3-3-3-3-3-6-6-6-6-6-6-6-6-1-1-1-1-1-1-1-1-8-8-8-8-8-8-8-8-------|
A|---3-3-3-3-3-3-3-3-6-6-6-6-6-6-6-6-1-1-1-1-1-1-1-1-8-8-8-8-8-8-8-8-------|
D|---3-3-3-3-3-3-3-3-6-6-6-6-6-6-6-6-1-1-1-1-1-1-1-1-8-8-8-8-8-8-8-8-------|


Guitarra 2

E|-------------------------------------------------------------------------|
B|-------------------------------------------------------------------------|
G|-------13---play this-----------------15---then this---------------------|
D|--------x---16 times-------------------x---16 times----------------------|
A|-------11-----------------------------13---------------------------------|
E|-------------------------------------------------------------------------|


Guitarra 3

E|-------------------------------------------------------------------------|
B|-------------------------------------------------------------------------|
G|---6-6-6-6-6-6-6-6-6-6-6-6-6-6-6-6-8-8-8-8-8-8-8-8-8-8-8-8-8-8-8-8-------|
D|---6-6-6-6-6-6-6-6-6-6-6-6-6-6-6-6-8-8-8-8-8-8-8-8-8-8-8-8-8-8-8-8-------|
A|---4-4-4-4-4-4-4-4-4-4-4-4-4-4-4-4-6-6-6-6-6-6-6-6-6-6-6-6-6-6-6-6-------|
D|-------------------------------------------------------------------------|


[Refrão]

Guitarra 2

E|-------------------------------------------------------------------------|
B|-------------------------------------------------------------------------|
G|----10---play this---------12---then this---------10---then this---------|
D|-----x---16 times-----------x----8 times-----------x----8 times----------|
A|-----8---------------------10----------------------8---------------------|
E|-------------------------------------------------------------------------|


Guitarra 3

E|-------------------------------------------------------------------------|
B|-------------------------------------------------------------------------|
G|-------------------------------------------------------------------------|
D|----3-3-3-3-3-3-3-3-3-3-3-3-3-3-3-3-1-1-1-1-1-1-1-1-8-8-8-8-8-8-8-8------|
A|----3-3-3-3-3-3-3-3-3-3-3-3-3-3-3-3-1-1-1-1-1-1-1-1-8-8-8-8-8-8-8-8------|
D|----3-3-3-3-3-3-3-3-3-3-3-3-3-3-3-3-1-1-1-1-1-1-1-1-8-8-8-8-8-8-8-8------|


Guitarra 2
E|-------------------------------------------------------------------------|
B|-------------------------------------------------------------------------|
G|-10-play this---8-then this---12-then this---13-then this---12-then this-|
D|--x-8 times-----x-8 times------x--8 times-----x--4 times-----x--4 times--|
A|--8-------------6-------------10-------------11-------------10-----------|
E|-------------------------------------------------------------------------|

Guitarra 3

E|-------------------------------------------------------------------------|
B|-------------------------------------------------------------------------|
G|-------------------------------------------------------------------------|
D|----3-3-3-3-3-3-3-3-6-6-6-6-6-6-6-6-1-1-1-1-1-1-1-1-1-1-1-1-1-1-1-1------|
A|----3-3-3-3-3-3-3-3-6-6-6-6-6-6-6-6-1-1-1-1-1-1-1-1-1-1-1-1-1-1-1-1------|
D|----3-3-3-3-3-3-3-3-6-6-6-6-6-6-6-6-1-1-1-1-1-1-1-1-1-1-1-1-1-1-1-1------|


[Solo]

Guitarra 2

E|------------------------------------------------------------|
B|---------------------------------------6-6------------------|
G|------------------3b------------------------3b--------------|  (4x)
D|--------------3*-------------------------------------5b-----|
A|----------------------------1--5br--------------------------|
E|-1-1-1-1-1-1----------1-1-4--------(4)----------4br---------|

  . . . . . .          . . . .

Guitarra 3

E|--------------------------------------------------------------------|
B|--------------------------------------------------------------------|
G|--------------------------------------------------------------------|  (3x)
D|----3--3--3-----------3------------3----3--------------3------------|
A|----3--3--3-----------3------------3----3--------------3------------|
D|----3--3--3-----------3------------3----3--------------3------------|



[Ponte]

Guitarra 2

E|-------------------------------------------------------------------------|
B|-------------------------------------------------------------------------|
G|-----10---play this----------8--then this----------12--then this---------| (2x)
D|------x---16 times-----------x---8 times------------x---8 times----------|
A|------8----------------------6---------------------10--------------------|
E|-------------------------------------------------------------------------|


Guitarra 3

E|-------------------------------------------------------------------------|
B|-------------------------------------------------------------------------|
G|-------------------------------------------------------------------------|  (2x)
D|---3-3-3-3-3-3-3-3-6-6-6-6-6-6-6-6-1-1-1-1-1-1-1-1-8-8-8-8-8-8-8-8-------|
A|---3-3-3-3-3-3-3-3-6-6-6-6-6-6-6-6-1-1-1-1-1-1-1-1-8-8-8-8-8-8-8-8-------|
D|---3-3-3-3-3-3-3-3-6-6-6-6-6-6-6-6-1-1-1-1-1-1-1-1-8-8-8-8-8-8-8-8-------|


Guitarra 2
E|-------------------------------------------------------------------------|
B|-------------------------------------------------------------------------|
G|--10--play this-----12--then this-----13--then this-----15--then this----|  (2x)
D|---x---4 times-------x---4 times-------x---4 times-------x---4 times-----|
A|---8----------------10----------------11----------------13---------------|
E|-------------------------------------------------------------------------|

Guitarra 3

E|-----------------------------------------------------------------------|
B|-----------------------------------------------------------------------|
G|---6-6-6-6-6-6-6-6-6-6-6-6-6-6-6-6-3-3-3-3-3-3-3-3-3-3-3-3---6---6-----|
D|---6-6-6-6-6-6-6-6-6-6-6-6-6-6-6-6-3-3-3-3-3-3-3-3-3-3-3-3---6---6-----|
A|---4-4-4-4-4-4-4-4-4-4-4-4-4-4-4-4-1-1-1-1-1-1-1-1-1-1-1-1---4---4-----|
D|-----------------------------------------------------------------------|


[Refrão]

Guitarra 2

E|-------------------------------------------------------------------------|
B|-------------------------------------------------------------------------|
G|----10---play this---------12---then this---------10---then this---------|
D|-----x---16 times-----------x----8 times-----------x----8 times----------|
A|-----8---------------------10----------------------8---------------------|
E|-------------------------------------------------------------------------|


Guitarra 2
E|-------------------------------------------------------------------------|
B|-------------------------------------------------------------------------|
G|-10-play this---8-then this---12-then this---13-then this---12-then this-|
D|--x-8 times-----x-8 times------x--8 times-----x--4 times-----x--4 times--|
A|--8-------------6-------------10-------------11-------------10-----------|
E|-------------------------------------------------------------------------|

Guitarra 2
E|-------------------------------------------------------------------------|
B|-------------------------------------------------------------------------|
G|--10--play this-----8--then this-----12--then this-----10--then this-----|
D|---x--8 times-------x--8 times--------x--8 times--------x--8 times-------|
A|---8----------------6----------------10-----------------8----------------|
E|-------------------------------------------------------------------------|

Guitarra 3

E|-------------------------------------------------------------------------|
B|-------------------------------------------------------------------------|
G|-------------------------------------------------------------------------|
D|---3-3-3-3-3-3-3-3-6-6-6-6-6-6-6-6-1-1-1-1-1-1-1-1-8-8-8-8-8-8-8-8-------|
A|---3-3-3-3-3-3-3-3-6-6-6-6-6-6-6-6-1-1-1-1-1-1-1-1-8-8-8-8-8-8-8-8-------|
D|---3-3-3-3-3-3-3-3-6-6-6-6-6-6-6-6-1-1-1-1-1-1-1-1-8-8-8-8-8-8-8-8-------|


Guitarra 2

E|-------------------------------------------------------------------------|
B|-------------------------------------------------------------------------|
G|-------13---play this-----------------15---then this---------------------|
D|--------x---16 times-------------------x---16 times----------------------|
A|-------11-----------------------------13---------------------------------|
E|-------------------------------------------------------------------------|


Guitarra 3

E|-------------------------------------------------------------------------|
B|-------------------------------------------------------------------------|
G|---6-6-6-6-6-6-6-6-6-6-6-6-6-6-6-6-8-8-8-8-8-8-8-8-8-8-8-8-8-8-8-8-------|
D|---6-6-6-6-6-6-6-6-6-6-6-6-6-6-6-6-8-8-8-8-8-8-8-8-8-8-8-8-8-8-8-8-------|
A|---4-4-4-4-4-4-4-4-4-4-4-4-4-4-4-4-6-6-6-6-6-6-6-6-6-6-6-6-6-6-6-6-------|
D|-------------------------------------------------------------------------|


[Final]

Guitarra 1

E|-------------------------------------------------------------------------|
B|-------------------------------------------------------------------------|
G|-------------------------------------------------------------------------|  (2x)
D|--6---------------10---------------13-----------------10-----------------|
A|-----8----------------8----------------13-----------------8~~------------|
E|-------------------------------------------------------------------------|
Acordes para:
    Colaboração e revisão:

    0 comentários

      mostrar mais comentários

      Conseguiu tocar?

      14tocaram1ainda não

      Grave um vídeo tocando New Divide e mande pra gente!

      00:00 / 00:00
      outros vídeos desta música
      repetirqualidadeautomática
      Outro vídeos desta música
        00:00 / 00:00
        automática
        OK