Cifra Club

New Divide

Linkin Park

Tab de baixo: Principal
exibições 3.503
(intro)
Começa em 0:19 (11 >>Onze; 13 >>Treze; 15 >> Quinze)
G|-------------------------------------------------------------|
D|-------------------------------------------------------------|
A|-888888881111111111111111666666661313131313131515------------|(2x)
E|-------------------------------------------------------------|

(verso)
G|---------------------------------------|
D|---------------------------------------|
A|---8-------11------6-------1-----------|(3x)
E|---------------------------------------|

(pré-refrão)
G|-----------------------------------|
D|-----------------------------------|
A|-4444444444444444111111111---------|                   
E|-----------------------------------|

(refrão) 
G|---------------------------------------------|--------------------------------------------|
D|---------------------------------------------|--------------------------------------------|
A|-8888888888888888666666661313131313131313----|--8888888811111111111111116666666666666666--|
E|---------------------------------------------|--------------------------------------------|

G|--------------------------------------------------|
D|--------------------------------------------------|
A|-888888881111111111111111666666661313131313131515-|
E|--------------------------------------------------|

G|-------------------|
D|-11 (16x) 13 (16x)-|
A|-------------------|
E|-------------------|

G|--------------------------------------------------|
D|--------------------------------------------------|
A|-888888881111111111111111666666661313131313131515-|
E|--------------------------------------------------|

(verso)
G|--------------------------------------------------|
D|--------------------------------------------------|
A|-888888881111111111111111666666661313131313131515-|
E|--------------------------------------------------| (3x)

(pré-refrão) 
G|-----------------------------|    |------------------------|
D|-----------------------------| ou |--11 (16x) 8 (9x)-------| 
A|-4444444444444444111111111---|    |------------------------|               
E|-----------------------------|    |------------------------|

(refrão) 
G|---------------------------------------------|--------------------------------------------|
D|---------------------------------------------|--------------------------------------------|
A|-8888888888888888666666661313131313131313----|--88888888111111111111111166666666666666668-|
E|---------------------------------------------|--------------------------------------------|

(guitarra solo) 
G|-----------------------------------------------|
D|-----------------------------------------------|
A|-----------------------------------------------|
E|111--1--1-1--1---111--1--1-1--1---111--1--111--|

(ponte)    
G|---------------------------------------------------|
D|---------------------------------------------------|
A|-888888881111111111111111666666661313131313131515--|
E|---------------------------------------------------|

G|---------------------------------------------------|
D|---------------------------------------------------|
A|-888888881111111111111111666666661313131313131515--|
E|---------------------------------------------------|

G|---------------------------|
D|-11 (16x) 8 (12x) 11 (4x)--|
A|---------------------------|
E|---------------------------|

(refrão)
G|---------------------------------------------|--------------------------------------------|
D|---------------------------------------------|--------------------------------------------|
A|-8888888888888888666666661313131313131313----|--8888888811111111111111116666666666666666--|
E|---------------------------------------------|--------------------------------------------|

G|--------------------------------------------------|
D|--------------------------------------------------|
A|-888888881111111111111111666666661313131313131515-|
E|--------------------------------------------------|

G|-------------------|
D|-11 (16x) 13 (16x)-|
A|-------------------|
E|-------------------|

G|--------------------------------------------------|
D|--------------------------------------------------|
A|-888888881111111111111111666666661313131313131515-|
E|--------------------------------------------------|

G|---------------------------------------------------|
D|---------------------------------------------------|
A|-8888888811111111111111116666666613131313131315158-|
E|---------------------------------------------------|

(outro)

G|-----------------------------------------------|
D|--6--------10---------13---------10------------|
A|----8--------8----------13---------8~~---------|
E|-----------------------------------------------|

G|-----------------------------------------------|
D|--6--------10---------13-----------------------|
A|----8--------8----------13---------------------|
E|-----------------------------------------------|
Colaboração e revisão:
  • Paulo Ricardo

0 comentários

    mostrar mais comentários

    Conseguiu tocar?

    4tocaram0ainda não

    Grave um vídeo tocando New Divide e mande pra gente!

    00:00 / 00:00
    outros vídeos desta música
    repetirqualidadeautomática
    Outro vídeos desta música
      00:00 / 00:00
      automática
      OK